  0
SECTION
  2
HEADER
  9
$ACADVER
  1
AC1015
  9
$ACADMAINTVER
 70
     6
  9
$DWGCODEPAGE
  3
ANSI_1254
  9
$INSBASE
 10
0.0
 20
0.0
 30
0.0
  9
$EXTMIN
 10
0.0
 20
0.0
 30
0.0
  9
$EXTMAX
 10
279.4
 20
215.9
 30
0.0
  9
$LIMMIN
 10
0.0
 20
0.0
  9
$LIMMAX
 10
279.4
 20
215.9
  9
$ORTHOMODE
 70
     0
  9
$REGENMODE
 70
     1
  9
$FILLMODE
 70
     1
  9
$QTEXTMODE
 70
     0
  9
$MIRRTEXT
 70
     1
  9
$LTSCALE
 40
1.0
  9
$ATTMODE
 70
     1
  9
$TEXTSIZE
 40
3.5
  9
$TRACEWID
 40
1.0
  9
$TEXTSTYLE
  7
Standard
  9
$CLAYER
  8
0
  9
$CELTYPE
  6
ByLayer
  9
$CECOLOR
 62
   256
  9
$CELTSCALE
 40
1.0
  9
$DISPSILH
 70
     0
  9
$DIMSCALE
 40
1.0
  9
$DIMASZ
 40
3.5
  9
$DIMEXO
 40
1.0
  9
$DIMDLI
 40
3.75
  9
$DIMRND
 40
0.0
  9
$DIMDLE
 40
0.0
  9
$DIMEXE
 40
1.0
  9
$DIMTP
 40
0.0
  9
$DIMTM
 40
0.0
  9
$DIMTXT
 40
3.5
  9
$DIMCEN
 40
2.5
  9
$DIMTSZ
 40
0.0
  9
$DIMTOL
 70
     0
  9
$DIMLIM
 70
     0
  9
$DIMTIH
 70
     1
  9
$DIMTOH
 70
     1
  9
$DIMSE1
 70
     0
  9
$DIMSE2
 70
     0
  9
$DIMTAD
 70
     1
  9
$DIMZIN
 70
     0
  9
$DIMBLK
  1

  9
$DIMASO
 70
     1
  9
$DIMSHO
 70
     1
  9
$DIMPOST
  1

  9
$DIMAPOST
  1

  9
$DIMALT
 70
     0
  9
$DIMALTD
 70
     3
  9
$DIMALTF
 40
0.0393700787
  9
$DIMLFAC
 40
1.0
  9
$DIMTOFL
 70
     1
  9
$DIMTVP
 40
0.0
  9
$DIMTIX
 70
     0
  9
$DIMSOXD
 70
     0
  9
$DIMSAH
 70
     0
  9
$DIMBLK1
  1

  9
$DIMBLK2
  1

  9
$DIMSTYLE
  2
ISO-25
  9
$DIMCLRD
 70
     0
  9
$DIMCLRE
 70
     0
  9
$DIMCLRT
 70
     0
  9
$DIMTFAC
 40
1.0
  9
$DIMGAP
 40
1.524
  9
$DIMJUST
 70
     0
  9
$DIMSD1
 70
     0
  9
$DIMSD2
 70
     0
  9
$DIMTOLJ
 70
     0
  9
$DIMTZIN
 70
     0
  9
$DIMALTZ
 70
     0
  9
$DIMALTTZ
 70
     0
  9
$DIMUPT
 70
     0
  9
$DIMDEC
 70
     2
  9
$DIMTDEC
 70
     2
  9
$DIMALTU
 70
     2
  9
$DIMALTTD
 70
     3
  9
$DIMTXSTY
  7
Standard
  9
$DIMAUNIT
 70
     0
  9
$DIMADEC
 70
     2
  9
$DIMALTRND
 40
0.0
  9
$DIMAZIN
 70
     0
  9
$DIMDSEP
 70
    44
  9
$DIMATFIT
 70
     3
  9
$DIMFRAC
 70
     0
  9
$DIMLDRBLK
  1

  9
$DIMLUNIT
 70
     2
  9
$DIMLWD
 70
    -2
  9
$DIMLWE
 70
    -2
  9
$DIMTMOVE
 70
     0
  9
$LUNITS
 70
     2
  9
$LUPREC
 70
     2
  9
$SKETCHINC
 40
1.0
  9
$FILLETRAD
 40
10.0
  9
$AUNITS
 70
     0
  9
$AUPREC
 70
     2
  9
$MENU
  1
.
  9
$ELEVATION
 40
0.0
  9
$PELEVATION
 40
0.0
  9
$THICKNESS
 40
0.0
  9
$LIMCHECK
 70
     0
  9
$CHAMFERA
 40
0.0
  9
$CHAMFERB
 40
0.0
  9
$CHAMFERC
 40
0.0
  9
$CHAMFERD
 40
0.0
  9
$SKPOLY
 70
     0
  9
$TDCREATE
 40
2458985.718268518
  9
$TDUCREATE
 40
2458985.593268518
  9
$TDUPDATE
 40
2458985.718268831
  9
$TDUUPDATE
 40
2458985.593268831
  9
$TDINDWG
 40
0.0000000116
  9
$TDUSRTIMER
 40
0.0000000116
  9
$USRTIMER
 70
     1
  9
$ANGBASE
 50
0.0
  9
$ANGDIR
 70
     0
  9
$PDMODE
 70
     0
  9
$PDSIZE
 40
-1.0
  9
$PLINEWID
 40
0.0
  9
$SPLFRAME
 70
     0
  9
$SPLINETYPE
 70
     6
  9
$SPLINESEGS
 70
     8
  9
$HANDSEED
  5
E1
  9
$SURFTAB1
 70
     6
  9
$SURFTAB2
 70
     6
  9
$SURFTYPE
 70
     6
  9
$SURFU
 70
     6
  9
$SURFV
 70
     6
  9
$UCSBASE
  2

  9
$UCSNAME
  2

  9
$UCSORG
 10
0.0
 20
0.0
 30
0.0
  9
$UCSXDIR
 10
1.0
 20
0.0
 30
0.0
  9
$UCSYDIR
 10
0.0
 20
1.0
 30
0.0
  9
$UCSORTHOREF
  2

  9
$UCSORTHOVIEW
 70
     0
  9
$UCSORGTOP
 10
0.0
 20
0.0
 30
0.0
  9
$UCSORGBOTTOM
 10
0.0
 20
0.0
 30
0.0
  9
$UCSORGLEFT
 10
0.0
 20
0.0
 30
0.0
  9
$UCSORGRIGHT
 10
0.0
 20
0.0
 30
0.0
  9
$UCSORGFRONT
 10
0.0
 20
0.0
 30
0.0
  9
$UCSORGBACK
 10
0.0
 20
0.0
 30
0.0
  9
$PUCSBASE
  2

  9
$PUCSNAME
  2

  9
$PUCSORG
 10
0.0
 20
0.0
 30
0.0
  9
$PUCSXDIR
 10
1.0
 20
0.0
 30
0.0
  9
$PUCSYDIR
 10
0.0
 20
1.0
 30
0.0
  9
$PUCSORTHOREF
  2

  9
$PUCSORTHOVIEW
 70
     0
  9
$PUCSORGTOP
 10
0.0
 20
0.0
 30
0.0
  9
$PUCSORGBOTTOM
 10
0.0
 20
0.0
 30
0.0
  9
$PUCSORGLEFT
 10
0.0
 20
0.0
 30
0.0
  9
$PUCSORGRIGHT
 10
0.0
 20
0.0
 30
0.0
  9
$PUCSORGFRONT
 10
0.0
 20
0.0
 30
0.0
  9
$PUCSORGBACK
 10
0.0
 20
0.0
 30
0.0
  9
$USERI1
 70
     0
  9
$USERI2
 70
     0
  9
$USERI3
 70
     0
  9
$USERI4
 70
     0
  9
$USERI5
 70
     0
  9
$USERR1
 40
0.0
  9
$USERR2
 40
0.0
  9
$USERR3
 40
0.0
  9
$USERR4
 40
0.0
  9
$USERR5
 40
0.0
  9
$WORLDVIEW
 70
     1
  9
$SHADEDGE
 70
     3
  9
$SHADEDIF
 70
    70
  9
$TILEMODE
 70
     1
  9
$MAXACTVP
 70
    64
  9
$PINSBASE
 10
0.0
 20
0.0
 30
0.0
  9
$PLIMCHECK
 70
     0
  9
$PEXTMIN
 10
1.0000000000E+20
 20
1.0000000000E+20
 30
1.0000000000E+20
  9
$PEXTMAX
 10
-1.0000000000E+20
 20
-1.0000000000E+20
 30
-1.0000000000E+20
  9
$PLIMMIN
 10
0.0
 20
0.0
  9
$PLIMMAX
 10
420.0
 20
297.0
  9
$UNITMODE
 70
     0
  9
$VISRETAIN
 70
     1
  9
$PLINEGEN
 70
     0
  9
$PSLTSCALE
 70
     1
  9
$TREEDEPTH
 70
  3020
  9
$CMLSTYLE
  2
Standard
  9
$CMLJUST
 70
     0
  9
$CMLSCALE
 40
20.0
  9
$PROXYGRAPHICS
 70
     1
  9
$MEASUREMENT
 70
     1
  9
$CELWEIGHT
370
    -1
  9
$ENDCAPS
280
     0
  9
$JOINSTYLE
280
     0
  9
$LWDISPLAY
290
     1
  9
$INSUNITS
 70
     4
  9
$HYPERLINKBASE
  1

  9
$STYLESHEET
  1

  9
$XEDIT
290
     1
  9
$CEPSNTYPE
380
     0
  9
$PSTYLEMODE
290
     1
  9
$FINGERPRINTGUID
  2
{d5365a13-fa0e-4129-b101-52956e5c99ae}
  9
$VERSIONGUID
  2
{FAEB1C32-E019-11D5-929B-00C0DF256EC4}
  9
$EXTNAMES
290
     1
  9
$PSVPSCALE
 40
0.0
  9
$OLESTARTUP
290
     0
  0
ENDSEC
  0
SECTION
  2
CLASSES
  0
CLASS
  1
ACDBDICTIONARYWDFLT
  2
AcDbDictionaryWithDefault
  3
ObjectDBX Classes
 90
        0
280
     0
281
     0
  0
CLASS
  1
VISUALSTYLE
  2
AcDbVisualStyle
  3
ObjectDBX Classes
 90
     4095
280
     0
281
     0
  0
CLASS
  1
MATERIAL
  2
AcDbMaterial
  3
ObjectDBX Classes
 90
     1153
280
     0
281
     0
  0
CLASS
  1
SCALE
  2
AcDbScale
  3
ObjectDBX Classes
 90
     1153
280
     0
281
     0
  0
CLASS
  1
TABLESTYLE
  2
AcDbTableStyle
  3
ObjectDBX Classes
 90
     4095
280
     0
281
     0
  0
CLASS
  1
MLEADERSTYLE
  2
AcDbMLeaderStyle
  3
ACDB_MLEADERSTYLE_CLASS
 90
     4095
280
     0
281
     0
  0
CLASS
  1
SUN
  2
AcDbSun
  3
SCENEOE
 90
     1153
280
     0
281
     0
  0
CLASS
  1
ACDBPLACEHOLDER
  2
AcDbPlaceHolder
  3
ObjectDBX Classes
 90
        0
280
     0
281
     0
  0
CLASS
  1
LAYOUT
  2
AcDbLayout
  3
ObjectDBX Classes
 90
        0
280
     0
281
     0
  0
ENDSEC
  0
SECTION
  2
TABLES
  0
TABLE
  2
VPORT
  5
8
330
0
100
AcDbSymbolTable
 70
     1
  0
VPORT
  5
29
330
8
100
AcDbSymbolTableRecord
100
AcDbViewportTableRecord
  2
*Active
 70
     0
 10
0.0
 20
0.0
 11
1.0
 21
1.0
 12
139.7
 22
107.95
 13
0.0
 23
0.0
 14
10.0
 24
10.0
 15
10.0
 25
10.0
 16
0.0
 26
0.0
 36
1.0
 17
0.0
 27
0.0
 37
0.0
 40
215.9
 41
1.2941176471
 42
50.0
 43
0.0
 44
0.0
 50
0.0
 51
0.0
 71
     0
 72
  2000
 73
     1
 74
     3
 75
     0
 76
     0
 77
     0
 78
     0
281
     0
 65
     1
110
0.0
120
0.0
130
0.0
111
1.0
121
0.0
131
0.0
112
0.0
122
1.0
132
0.0
 79
     0
146
0.0
  0
ENDTAB
  0
TABLE
  2
LTYPE
  5
5
330
0
100
AcDbSymbolTable
 70
     6
  0
LTYPE
  5
14
330
5
100
AcDbSymbolTableRecord
100
AcDbLinetypeTableRecord
  2
ByBlock
 70
     0
  3

 72
    65
 73
     0
 40
0.0
  0
LTYPE
  5
15
330
5
100
AcDbSymbolTableRecord
100
AcDbLinetypeTableRecord
  2
ByLayer
 70
     0
  3

 72
    65
 73
     0
 40
0.0
  0
LTYPE
  5
16
330
5
100
AcDbSymbolTableRecord
100
AcDbLinetypeTableRecord
  2
Continuous
 70
     0
  3
Solid line
 72
    65
 73
     0
 40
0.0
  0
LTYPE
  5
6E
330
5
100
AcDbSymbolTableRecord
100
AcDbLinetypeTableRecord
  2
HIDDEN
 70
     0
  3
Hidden __ __ __ __ __ __ __ __ __ __ __ __ __ __
 72
    65
 73
     2
 40
1.905
 49
1.27
 74
     0
 49
-0.635
 74
     0
  0
LTYPE
  5
6F
330
5
100
AcDbSymbolTableRecord
100
AcDbLinetypeTableRecord
  2
PHANTOM
 70
     0
  3
Phantom ______  __  __  ______  __  __  ______
 72
    65
 73
     6
 40
12.7
 49
6.35
 74
     0
 49
-1.27
 74
     0
 49
1.27
 74
     0
 49
-1.27
 74
     0
 49
1.27
 74
     0
 49
-1.27
 74
     0
  0
LTYPE
  5
70
330
5
100
AcDbSymbolTableRecord
100
AcDbLinetypeTableRecord
  2
CENTER
 70
     0
  3
Center ____ _ ____ _ ____ _ ____ _ ____ _ ____
 72
    65
 73
     4
 40
10.16
 49
6.35
 74
     0
 49
-1.27
 74
     0
 49
1.27
 74
     0
 49
-1.27
 74
     0
  0
LTYPE
  5
71
330
5
100
AcDbSymbolTableRecord
100
AcDbLinetypeTableRecord
  2
CENTERX2
 70
     0
  3
Center (2x) ________  __  ________  __  _____
 72
    65
 73
     4
 40
20.32
 49
12.7
 74
     0
 49
-2.54
 74
     0
 49
2.54
 74
     0
 49
-2.54
 74
     0
  0
LTYPE
  5
72
330
5
100
AcDbSymbolTableRecord
100
AcDbLinetypeTableRecord
  2
DOT2
 70
     0
  3
Dot (.5x) ........................................
 72
    65
 73
     2
 40
0.635
 49
0.0
 74
     0
 49
-0.635
 74
     0
  0
ENDTAB
  0
TABLE
  2
LAYER
  5
2
330
0
100
AcDbSymbolTable
 70
    17
  0
LAYER
  5
10
330
2
100
AcDbSymbolTableRecord
100
AcDbLayerTableRecord
  2
0
 70
     0
 62
     7
  6
Continuous
370
    -3
390
F
  0
LAYER
  5
73
330
2
100
AcDbSymbolTableRecord
100
AcDbLayerTableRecord
  2
FORMAT
 70
     0
 62
     7
  6
Continuous
370
    -3
390
F
  0
LAYER
  5
74
330
2
100
AcDbSymbolTableRecord
100
AcDbLayerTableRecord
  2
YARDIMCI_GEOMETRI
 70
     0
 62
    -6
  6
Continuous
290
     0
370
    -3
390
F
  0
LAYER
  5
75
330
2
100
AcDbSymbolTableRecord
100
AcDbLayerTableRecord
  2
SAYFA_CERCEVESI
 70
     0
 62
     7
  6
Continuous
370
    25
390
F
  0
LAYER
  5
76
330
2
100
AcDbSymbolTableRecord
100
AcDbLayerTableRecord
  2
ANTET
 70
     0
 62
     7
  6
Continuous
370
    -3
390
F
  0
LAYER
  5
77
330
2
100
AcDbSymbolTableRecord
100
AcDbLayerTableRecord
  2
OLCU
 70
     0
 62
   150
  6
Continuous
370
    -3
390
F
  0
LAYER
  5
78
330
2
100
AcDbSymbolTableRecord
100
AcDbLayerTableRecord
  2
METIN
 70
     0
 62
    96
  6
Continuous
370
    -3
390
F
  0
LAYER
  5
79
330
2
100
AcDbSymbolTableRecord
100
AcDbLayerTableRecord
  2
BALON
 70
     0
 62
     5
  6
Continuous
370
    -3
390
F
  0
LAYER
  5
7A
330
2
100
AcDbSymbolTableRecord
100
AcDbLayerTableRecord
  2
VURGU
 70
     0
 62
     7
  6
Continuous
370
    -3
390
F
  0
LAYER
  5
7B
330
2
100
AcDbSymbolTableRecord
100
AcDbLayerTableRecord
  2
SILIK
 70
     0
 62
     7
  6
Continuous
370
    -3
390
F
  0
LAYER
  5
7C
330
2
100
AcDbSymbolTableRecord
100
AcDbLayerTableRecord
  2
MODEL
 70
     0
 62
     7
  6
Continuous
370
    -3
390
F
  0
LAYER
  5
7D
330
2
100
AcDbSymbolTableRecord
100
AcDbLayerTableRecord
  2
DETAYLANDıRMA
 70
     0
 62
   190
  6
Continuous
370
    -3
390
F
  0
LAYER
  5
7E
330
2
100
AcDbSymbolTableRecord
100
AcDbLayerTableRecord
  2
TOLERANS
 70
     0
 62
   230
  6
Continuous
370
    -3
390
F
  0
LAYER
  5
7F
330
2
100
AcDbSymbolTableRecord
100
AcDbLayerTableRecord
  2
MERKEZ_CIZGILERI
 70
     0
 62
    30
  6
Continuous
370
    -3
390
F
  0
LAYER
  5
80
330
2
100
AcDbSymbolTableRecord
100
AcDbLayerTableRecord
  2
KESIT-DETAY_CIZGILERI
 70
     0
 62
     7
  6
Continuous
370
    -3
390
F
  0
LAYER
  5
81
330
2
100
AcDbSymbolTableRecord
100
AcDbLayerTableRecord
  2
\U+041E\U+0421\U+0415\U+0412\U+042B\U+0415
 70
     0
 62
     7
  6
Continuous
370
    -3
390
F
  0
LAYER
  5
82
330
2
100
AcDbSymbolTableRecord
100
AcDbLayerTableRecord
  2
\U+0412\U+041E\U+0414\U+042F\U+041D\U+042B\U+0415_\U+0417\U+041D\U+0410\U+041A\U+0418
 70
     0
 62
    11
  6
Continuous
370
    -3
390
F
  0
ENDTAB
  0
TABLE
  2
STYLE
  5
3
330
0
100
AcDbSymbolTable
 70
     1
  0
STYLE
  5
11
330
3
100
AcDbSymbolTableRecord
100
AcDbTextStyleTableRecord
  2
Standard
 70
     0
 40
0.0
 41
1.0
 50
0.0
 71
     0
 42
3.5
  3
txt
  4

  0
ENDTAB
  0
TABLE
  2
VIEW
  5
6
330
0
100
AcDbSymbolTable
 70
     0
  0
ENDTAB
  0
TABLE
  2
UCS
  5
7
330
0
100
AcDbSymbolTable
 70
     0
  0
ENDTAB
  0
TABLE
  2
APPID
  5
9
330
0
100
AcDbSymbolTable
 70
     1
  0
APPID
  5
12
330
9
100
AcDbSymbolTableRecord
100
AcDbRegAppTableRecord
  2
ACAD
 70
     0
  0
ENDTAB
  0
TABLE
  2
DIMSTYLE
  5
A
330
0
100
AcDbSymbolTable
 70
     1
100
AcDbDimStyleTable
  0
DIMSTYLE
105
27
330
A
100
AcDbSymbolTableRecord
100
AcDbDimStyleTableRecord
  2
ISO-25
 70
     0
 41
2.5
 42
0.625
 43
3.75
 44
1.25
 73
     0
 74
     0
 77
     1
 78
     8
140
2.5
141
2.5
143
0.0393700787
147
0.625
171
     3
172
     1
178
     0
271
     2
272
     2
274
     3
278
    44
283
     0
284
     8
340
11
  0
ENDTAB
  0
TABLE
  2
BLOCK_RECORD
  5
1
330
0
100
AcDbSymbolTable
 70
     3
  0
BLOCK_RECORD
  5
1F
330
1
100
AcDbSymbolTableRecord
100
AcDbBlockTableRecord
  2
*Model_Space
340
22
  0
BLOCK_RECORD
  5
1B
330
1
100
AcDbSymbolTableRecord
100
AcDbBlockTableRecord
  2
*Paper_Space
340
1E
  0
BLOCK_RECORD
  5
23
330
1
100
AcDbSymbolTableRecord
100
AcDbBlockTableRecord
  2
*Paper_Space0
340
26
  0
BLOCK_RECORD
  5
B1
330
1
100
AcDbSymbolTableRecord
100
AcDbBlockTableRecord
  2
SW_CENTERMARKSYMBOL_0
340
0
102
{BLKREFS
331
BC
102
}
  0
BLOCK_RECORD
  5
C7
330
1
100
AcDbSymbolTableRecord
100
AcDbBlockTableRecord
  2
SW_CENTERMARKSYMBOL_1
340
0
102
{BLKREFS
331
D2
102
}
  0
ENDTAB
  0
ENDSEC
  0
SECTION
  2
BLOCKS
  0
BLOCK
  5
20
330
1F
100
AcDbEntity
  8
0
100
AcDbBlockBegin
  2
*Model_Space
 70
     0
 10
0.0
 20
0.0
 30
0.0
  3
*Model_Space
  1

  0
ENDBLK
  5
21
330
1F
100
AcDbEntity
  8
0
100
AcDbBlockEnd
  0
BLOCK
  5
1C
330
1B
100
AcDbEntity
 67
     1
  8
0
100
AcDbBlockBegin
  2
*Paper_Space
 70
     0
 10
0.0
 20
0.0
 30
0.0
  3
*Paper_Space
  1

  0
ENDBLK
  5
1D
330
1B
100
AcDbEntity
 67
     1
  8
0
100
AcDbBlockEnd
  0
BLOCK
  5
24
330
23
100
AcDbEntity
  8
0
100
AcDbBlockBegin
  2
*Paper_Space0
 70
     0
 10
0.0
 20
0.0
 30
0.0
  3
*Paper_Space0
  1

  0
ENDBLK
  5
25
330
23
100
AcDbEntity
  8
0
100
AcDbBlockEnd
  0
BLOCK
  5
B2
330
B1
100
AcDbEntity
  8
0
100
AcDbBlockBegin
  2
SW_CENTERMARKSYMBOL_0
 70
     0
 10
0.0
 20
0.0
 30
0.0
  3
SW_CENTERMARKSYMBOL_0
  1

  0
LINE
  5
B4
330
B1
100
AcDbEntity
  8
FORMAT
 62
     0
100
AcDbLine
 10
0.0
 20
0.0
 30
0.0
 11
0.0
 21
2.5
 31
0.0
  0
LINE
  5
B5
330
B1
100
AcDbEntity
  8
FORMAT
 62
     0
100
AcDbLine
 10
0.0
 20
0.0
 30
0.0
 11
-2.5
 21
0.0
 31
0.0
  0
LINE
  5
B6
330
B1
100
AcDbEntity
  8
FORMAT
 62
     0
100
AcDbLine
 10
0.0
 20
0.0
 30
0.0
 11
0.0
 21
-2.5
 31
0.0
  0
LINE
  5
B7
330
B1
100
AcDbEntity
  8
FORMAT
 62
     0
100
AcDbLine
 10
0.0
 20
0.0
 30
0.0
 11
2.5
 21
0.0
 31
0.0
  0
LINE
  5
B8
330
B1
100
AcDbEntity
  8
FORMAT
 62
     0
100
AcDbLine
 10
0.0
 20
5.0
 30
0.0
 11
0.0
 21
202.5
 31
0.0
  0
LINE
  5
B9
330
B1
100
AcDbEntity
  8
FORMAT
 62
     0
100
AcDbLine
 10
-5.0
 20
0.0
 30
0.0
 11
-202.5
 21
0.0
 31
0.0
  0
LINE
  5
BA
330
B1
100
AcDbEntity
  8
FORMAT
 62
     0
100
AcDbLine
 10
0.0
 20
-5.0
 30
0.0
 11
0.0
 21
-202.5
 31
0.0
  0
LINE
  5
BB
330
B1
100
AcDbEntity
  8
FORMAT
 62
     0
100
AcDbLine
 10
5.0
 20
0.0
 30
0.0
 11
202.5
 21
0.0
 31
0.0
  0
ENDBLK
  5
B3
330
B1
100
AcDbEntity
  8
0
100
AcDbBlockEnd
  0
BLOCK
  5
C8
330
C7
100
AcDbEntity
  8
0
100
AcDbBlockBegin
  2
SW_CENTERMARKSYMBOL_1
 70
     0
 10
0.0
 20
0.0
 30
0.0
  3
SW_CENTERMARKSYMBOL_1
  1

  0
LINE
  5
CA
330
C7
100
AcDbEntity
  8
FORMAT
 62
     0
100
AcDbLine
 10
0.0
 20
0.0
 30
0.0
 11
0.0
 21
2.5
 31
0.0
  0
LINE
  5
CB
330
C7
100
AcDbEntity
  8
FORMAT
 62
     0
100
AcDbLine
 10
0.0
 20
0.0
 30
0.0
 11
-2.5
 21
0.0
 31
0.0
  0
LINE
  5
CC
330
C7
100
AcDbEntity
  8
FORMAT
 62
     0
100
AcDbLine
 10
0.0
 20
0.0
 30
0.0
 11
0.0
 21
-2.5
 31
0.0
  0
LINE
  5
CD
330
C7
100
AcDbEntity
  8
FORMAT
 62
     0
100
AcDbLine
 10
0.0
 20
0.0
 30
0.0
 11
2.5
 21
0.0
 31
0.0
  0
LINE
  5
CE
330
C7
100
AcDbEntity
  8
FORMAT
 62
     0
100
AcDbLine
 10
0.0
 20
5.0
 30
0.0
 11
0.0
 21
202.5
 31
0.0
  0
LINE
  5
CF
330
C7
100
AcDbEntity
  8
FORMAT
 62
     0
100
AcDbLine
 10
-5.0
 20
0.0
 30
0.0
 11
-202.5
 21
0.0
 31
0.0
  0
LINE
  5
D0
330
C7
100
AcDbEntity
  8
FORMAT
 62
     0
100
AcDbLine
 10
0.0
 20
-5.0
 30
0.0
 11
0.0
 21
-202.5
 31
0.0
  0
LINE
  5
D1
330
C7
100
AcDbEntity
  8
FORMAT
 62
     0
100
AcDbLine
 10
5.0
 20
0.0
 30
0.0
 11
202.5
 21
0.0
 31
0.0
  0
ENDBLK
  5
C9
330
C7
100
AcDbEntity
  8
0
100
AcDbBlockEnd
  0
ENDSEC
  0
SECTION
  2
ENTITIES
  0
LINE
  5
83
330
1F
100
AcDbEntity
  8
0
  6
Continuous
 62
     7
370
    25
100
AcDbLine
 10
-91.6627382862
 20
58.0472205365
 30
0.0
 11
-91.6627382862
 21
-176.1100734985
 31
0.0
  0
LINE
  5
84
330
1F
100
AcDbEntity
  8
0
  6
Continuous
 62
     7
370
    25
100
AcDbLine
 10
308.3372676743
 20
-176.1100734985
 30
0.0
 11
308.3372676743
 21
58.0472205365
 31
0.0
  0
ARC
  5
85
330
1F
100
AcDbEntity
  8
0
  6
Continuous
 62
     7
370
    25
100
AcDbCircle
 10
308.337264694
 20
58.0472140269
 30
0.0
 40
400.0000000000001
100
AcDbArc
 50
135.0
 51
180.0
  0
LINE
  5
86
330
1F
100
AcDbEntity
  8
0
  6
Continuous
 62
     7
370
    25
100
AcDbLine
 10
197.9159081352
 20
513.3112822258
 30
0.0
 11
25.4945496095
 21
340.8899460518
 31
0.0
  0
LINE
  5
87
330
1F
100
AcDbEntity
  8
0
  6
Continuous
 62
     7
370
    25
100
AcDbLine
 10
308.3372676743
 20
58.0472205365
 30
0.0
 11
480.7586187494
 21
230.4685567105
 31
0.0
  0
LINE
  5
88
330
1F
100
AcDbEntity
  8
0
  6
Continuous
 62
     7
370
    25
100
AcDbLine
 10
108.337264694
 20
-176.1100734985
 30
0.0
 11
308.3372676743
 21
-176.1100734985
 31
0.0
  0
LINE
  5
89
330
1F
100
AcDbEntity
  8
0
  6
Continuous
 62
     7
370
    25
100
AcDbLine
 10
-91.6627382862
 20
-176.1100734985
 30
0.0
 11
108.337264694
 21
-176.1100734985
 31
0.0
  0
LWPOLYLINE
  5
8A
330
1F
100
AcDbEntity
  8
0
  6
Continuous
 62
     7
370
    25
100
AcDbPolyline
 90
       39
 70
   128
 43
0.0
 10
339.3372708929
 20
371.889904567
 10
345.2593797815
 20
365.9678254807
 10
351.1711025608
 20
360.0561176026
 10
357.0620531214
 20
354.1651521408
 10
362.9219347609
 20
348.305240699
 10
368.7404209745
 20
342.4867544854
 10
374.5073193682
 20
336.719885894
 10
380.2125269545
 20
331.0146485054
 10
385.8460301531
 20
325.3811751091
 10
391.397934593
 20
319.8292408669
 10
396.8585247171
 20
314.3686805451
 10
402.2181743753
 20
309.0090308869
 10
407.4675256384
 20
303.7596796238
 10
412.5973397863
 20
298.6298356736
 10
417.5986463202
 20
293.6285291397
 10
422.4626535547
 20
288.7645517075
 10
427.1808380259
 20
284.0463672364
 10
431.7448848856
 20
279.4822905743
 10
436.1468369139
 20
275.080338546
 10
440.3789455069
 20
270.848229953
 10
444.4338196886
 20
266.7933855736
 10
448.3043069017
 20
262.9228983605
 10
451.9836122168
 20
259.2435930455
 10
455.465298332
 20
255.7618771279
 10
458.7432557714
 20
252.4839196884
 10
461.8117624891
 20
249.4154427731
 10
464.6653646601
 20
246.5618107998
 10
467.2991449011
 20
243.9280603611
 10
469.7083944452
 20
241.5187810147
 10
471.8889409674
 20
239.3382344925
 10
473.8369697702
 20
237.390235492
 10
475.5490237844
 20
235.6781814778
 10
477.0221227777
 20
234.2050824845
 10
478.2536739481
 20
232.9735313141
 10
479.241501726
 20
231.9857035363
 10
479.983907379
 20
231.2432978833
 10
480.4795498026
 20
230.7476256573
 10
480.7275945318
 20
230.4995809281
 10
480.7586187494
 20
230.4685567105
  0
LWPOLYLINE
  5
8B
330
1F
100
AcDbEntity
  8
0
  6
Continuous
 62
     7
370
    25
100
AcDbPolyline
 90
       39
 70
   128
 43
0.0
 10
197.9159081352
 20
513.3112822258
 10
197.9469249022
 20
513.2802878105
 10
198.1949696315
 20
513.032213279
 10
198.6906269563
 20
512.536541053
 10
199.4330326093
 20
511.7941652024
 10
200.4208678377
 20
510.8063374245
 10
201.6524190081
 20
509.5747862542
 10
203.1255105508
 20
508.1016574585
 10
204.837564565
 20
506.3896332466
 10
206.7855710161
 20
504.4416342461
 10
208.9661249888
 20
502.2610579216
 10
211.3753968847
 20
499.8517785752
 10
214.009154774
 20
497.2180281365
 10
216.8627792967
 20
494.3643961632
 10
219.9312636626
 20
491.2959490502
 10
223.2092285526
 20
488.0179320061
 10
226.6909221185
 20
484.5362458908
 10
230.3702348841
 20
480.8569703781
 10
234.2407220972
 20
476.986483165
 10
238.2955664766
 20
472.9316387856
 10
242.5276899708
 20
468.6995301926
 10
246.9296419991
 20
464.297548362
 10
251.49370376
 20
459.7335015023
 10
256.2118733299
 20
455.0153170311
 10
261.0758805645
 20
450.1513395989
 10
266.0771870983
 20
445.1500330651
 10
271.2070012463
 20
440.0201593125
 10
276.4563525093
 20
434.7708378517
 10
281.8160170687
 20
429.4111881935
 10
287.2765922916
 20
423.9506278717
 10
292.8284967316
 20
418.3986936295
 10
298.4619999302
 20
412.7652202332
 10
304.1672075165
 20
407.0599828446
 10
309.9341059101
 20
401.2930546486
 10
315.752607025
 20
395.4745684349
 10
321.6124737633
 20
389.6147165978
 10
327.5034243238
 20
383.723751136
 10
333.4151471031
 20
377.8120432579
 10
339.3372708929
 20
371.889904567
  0
LINE
  5
8C
330
1F
100
AcDbEntity
  8
0
  6
Continuous
 62
     1
370
    25
100
AcDbLine
 10
-91.6627382862
 20
58.0472205365
 30
0.0
 11
308.3372676743
 21
58.0472205365
 31
0.0
  0
LWPOLYLINE
  5
8D
330
1F
100
AcDbEntity
  8
0
  6
Continuous
 62
     1
370
    25
100
AcDbPolyline
 90
       77
 70
   128
 43
0.0
 10
25.4945496095
 20
340.8899460518
 10
25.6186017764
 20
340.7658491814
 10
25.9905347598
 20
340.393916198
 10
26.6097003592
 20
339.7748027527
 10
27.4750107897
 20
338.9094625199
 10
28.5849461329
 20
337.7995048249
 10
29.9375617874
 20
336.446896621
 10
31.5304884685
 20
334.8539624893
 10
33.3609247578
 20
333.0235634529
 10
35.4256594551
 20
330.9587989533
 10
37.7210715783
 20
328.663424083
 10
40.2431378139
 20
326.141313144
 10
42.9874325169
 20
323.3970556938
 10
45.9491351617
 20
320.4353306973
 10
49.1230564189
 20
317.2614131653
 10
52.5036269796
 20
313.8808463299
 10
56.0849161816
 20
310.2995608532
 10
59.8606394601
 20
306.5238450253
 10
63.8241769743
 20
302.5603149617
 10
67.968569882
 20
298.4159146035
 10
72.2865501416
 20
294.0979157173
 10
76.7705442381
 20
289.6139476979
 10
81.4126824958
 20
284.9717889511
 10
86.2048214299
 20
280.1796649182
 10
91.1385567856
 20
275.2459202492
 10
96.205230057
 20
270.1792572224
 10
101.3959550296
 20
264.9885271275
 10
106.7016236016
 20
259.6828494751
 10
112.1129286007
 20
254.2715523922
 10
117.620377056
 20
248.7641130173
 10
123.2143055645
 20
243.1701873028
 10
128.88490241
 20
237.4995802128
 10
134.6222182733
 20
231.762245723
 10
140.4161902142
 20
225.9682868206
 10
146.2566481901
 20
220.1278362953
 10
152.1333532405
 20
214.2511163437
 10
158.0359863115
 20
208.3484981739
 10
163.9542022717
 20
202.4302635872
 10
169.877615012
 20
196.5068731987
 10
175.795827247
 20
190.588638612
 10
181.6984677685
 20
184.6860204422
 10
187.5751653684
 20
178.8093004906
 10
193.4156307948
 20
172.9688499653
 10
199.2095971477
 20
167.174891063
 10
204.9469167364
 20
161.4375565731
 10
210.6175089252
 20
155.7669792855
 10
216.2114420903
 20
150.1730237686
 10
221.7188889158
 20
144.6655843937
 10
227.1301934493
 20
139.2542873108
 10
232.4358636511
 20
133.9486096585
 10
237.626593746
 20
128.7578795636
 10
242.6932567728
 20
123.6912165367
 10
247.6270014418
 20
118.7574718678
 10
252.4191403759
 20
113.9653478348
 10
257.0612693203
 20
109.3232188904
 10
261.5452671421
 20
104.8392210686
 10
265.8632511271
 20
100.5212221825
 10
270.0076365841
 20
96.3768516266
 10
273.9711815489
 20
92.4132917607
 10
277.7468973768
 20
88.6375759327
 10
281.3281828535
 20
85.056290456
 10
284.7087645901
 20
81.6757236206
 10
287.882682122
 20
78.5018060887
 10
290.8443922174
 20
75.5400810921
 10
293.5886794699
 20
72.7957938397
 10
296.1107457054
 20
70.2737276041
 10
298.4061652792
 20
67.9783229315
 10
300.4708999765
 20
65.9135882342
 10
302.3013288153
 20
64.0831444943
 10
303.8942480457
 20
62.4902252638
 10
305.2468711508
 20
61.1376170599
 10
306.3567990435
 20
60.0276742661
 10
307.222109474
 20
59.1623638356
 10
307.8412825239
 20
58.5432056868
 10
308.2132155073
 20
58.1712578022
 10
308.3372676743
 20
58.0472205365
 10
308.3372676743
 20
58.0472205365
  0
LINE
  5
8E
330
1F
100
AcDbEntity
  8
0
  6
Continuous
 62
     7
370
    25
100
AcDbLine
 10
-711.4016603295
 20
371.889904567
 30
0.0
 11
-711.4016603295
 21
199.468568393
 31
0.0
  0
LINE
  5
8F
330
1F
100
AcDbEntity
  8
0
  6
Continuous
 62
     7
370
    25
100
AcDbLine
 10
-311.401654369
 20
199.468568393
 30
0.0
 11
-311.401654369
 21
371.889904567
 31
0.0
  0
LINE
  5
90
330
1F
100
AcDbEntity
  8
0
  6
Continuous
 62
     7
370
    25
100
AcDbLine
 10
-711.4016603295
 20
199.468568393
 30
0.0
 11
-711.4016603295
 21
58.0472205365
 31
0.0
  0
LINE
  5
91
330
1F
100
AcDbEntity
  8
0
  6
Continuous
 62
     7
370
    25
100
AcDbLine
 10
-311.401654369
 20
58.0472205365
 30
0.0
 11
-311.401654369
 21
199.468568393
 31
0.0
  0
LINE
  5
92
330
1F
100
AcDbEntity
  8
0
  6
Continuous
 62
     7
370
    25
100
AcDbLine
 10
-711.4016603295
 20
58.0472205365
 30
0.0
 11
-711.4016603295
 21
-176.1100734985
 31
0.0
  0
LINE
  5
93
330
1F
100
AcDbEntity
  8
0
  6
Continuous
 62
     7
370
    25
100
AcDbLine
 10
-311.401654369
 20
-176.1100734985
 30
0.0
 11
-311.401654369
 21
58.0472205365
 31
0.0
  0
LWPOLYLINE
  5
94
330
1F
100
AcDbEntity
  8
0
  6
Continuous
 62
     7
370
    25
100
AcDbPolyline
 90
      151
 70
   128
 43
0.0
 10
-711.4016603295
 20
371.889904567
 10
-711.2262289588
 20
365.9678254807
 10
-710.7002328698
 20
360.0561176026
 10
-709.8245959346
 20
354.1651521408
 10
-708.6008678738
 20
348.305240699
 10
-707.0311795537
 20
342.4867544854
 10
-705.1182876889
 20
336.719885894
 10
-702.8655599419
 20
331.0146485054
 10
-700.2769302193
 20
325.3811751091
 10
-697.3569582764
 20
319.8292408669
 10
-694.1107552115
 20
314.3686805451
 10
-690.5440132682
 20
309.0090308869
 10
-686.6629909341
 20
303.7596796238
 10
-682.474512941
 20
298.6298356736
 10
-677.9859106604
 20
293.6285291397
 10
-673.2050519053
 20
288.7645517075
 10
-668.1403558318
 20
284.0463672364
 10
-662.8006737296
 20
279.4822905743
 10
-657.1953784291
 20
275.080338546
 10
-651.3343195979
 20
270.848229953
 10
-645.2277790372
 20
266.7933855736
 10
-638.8864557807
 20
262.9228983605
 10
-632.3214809958
 20
259.2435930455
 10
-625.5443732802
 20
255.7618771279
 10
-618.5670163099
 20
252.4839196884
 10
-611.4016588394
 20
249.4154427731
 10
-604.0608625476
 20
246.5618107998
 10
-596.5575169389
 20
243.9280603611
 10
-588.904772288
 20
241.5187810147
 10
-581.1160694424
 20
239.3382344925
 10
-573.2050578658
 20
237.390235492
 10
-565.185621715
 20
235.6781814778
 10
-557.0718314115
 20
234.2050824845
 10
-548.8779212896
 20
232.9735313141
 10
-540.6182635192
 20
231.9857035363
 10
-532.3073494796
 20
231.2432978833
 10
-523.9597608883
 20
230.7476256573
 10
-515.5901413959
 20
230.4995809281
 10
-507.2131733027
 20
230.4995809281
 10
-498.8435538102
 20
230.7476256573
 10
-490.4959652189
 20
231.2432978833
 10
-482.1850511793
 20
231.9857035363
 10
-473.9253934089
 20
232.9735313141
 10
-465.731483287
 20
234.2050824845
 10
-457.6176929836
 20
235.6781814778
 10
-449.5982568328
 20
237.390235492
 10
-441.6872452561
 20
239.3382344925
 10
-433.8985424105
 20
241.5187810147
 10
-426.2457977597
 20
243.9280603611
 10
-418.742452151
 20
246.5618107998
 10
-411.4016558592
 20
249.4154427731
 10
-404.2362983886
 20
252.4839196884
 10
-397.2589414183
 20
255.7618771279
 10
-390.4818337027
 20
259.2435930455
 10
-383.9168589179
 20
262.9228983605
 10
-377.5755356614
 20
266.7933855736
 10
-371.4689951007
 20
270.848229953
 10
-365.6079362694
 20
275.080338546
 10
-360.002640969
 20
279.4822905743
 10
-354.6629588668
 20
284.0463672364
 10
-349.5982627932
 20
288.7645517075
 10
-344.8174040381
 20
293.6285291397
 10
-340.3288017575
 20
298.6298356736
 10
-336.1403237645
 20
303.7596796238
 10
-332.2593014304
 20
309.0090308869
 10
-328.692559487
 20
314.3686805451
 10
-325.4463564221
 20
319.8292408669
 10
-322.5263844792
 20
325.3811751091
 10
-319.9377547566
 20
331.0146485054
 10
-317.6850270097
 20
336.719885894
 10
-315.7721351449
 20
342.4867544854
 10
-314.2024468247
 20
348.305240699
 10
-312.978718764
 20
354.1651521408
 10
-312.1030818288
 20
360.0561176026
 10
-311.5770857398
 20
365.9678254807
 10
-311.401654369
 20
371.889904567
 10
-311.5770857398
 20
377.8120432579
 10
-312.1030818288
 20
383.723751136
 10
-312.978718764
 20
389.6147165978
 10
-314.2024468247
 20
395.4745684349
 10
-315.7721351449
 20
401.2930546486
 10
-317.6850270097
 20
407.0599828446
 10
-319.9377547566
 20
412.7652202332
 10
-322.5263844792
 20
418.3986936295
 10
-325.4463564221
 20
423.9506278717
 10
-328.692559487
 20
429.4111881935
 10
-332.2593014304
 20
434.7708378517
 10
-336.1403237645
 20
440.0201593125
 10
-340.3288017575
 20
445.1500330651
 10
-344.8174040381
 20
450.1513395989
 10
-349.5982627932
 20
455.0153170311
 10
-354.6629588668
 20
459.7335015023
 10
-360.002640969
 20
464.297548362
 10
-365.6079362694
 20
468.6995301926
 10
-371.4689951007
 20
472.9316387856
 10
-377.5755356614
 20
476.986483165
 10
-383.9168589179
 20
480.8569703781
 10
-390.4818337027
 20
484.5362458908
 10
-397.2589414183
 20
488.0179320061
 10
-404.2362983886
 20
491.2959490502
 10
-411.4016558592
 20
494.3643961632
 10
-418.742452151
 20
497.2180281365
 10
-426.2457977597
 20
499.8517785752
 10
-433.8985424105
 20
502.2610579216
 10
-441.6872452561
 20
504.4416342461
 10
-449.5982568328
 20
506.3896332466
 10
-457.6176929836
 20
508.1016574585
 10
-465.731483287
 20
509.5747862542
 10
-473.9253934089
 20
510.8063374245
 10
-482.1850511793
 20
511.7941652024
 10
-490.4959652189
 20
512.536541053
 10
-498.8435538102
 20
513.032213279
 10
-507.2131733027
 20
513.2802878105
 10
-515.5901413959
 20
513.2802878105
 10
-523.9597608883
 20
513.032213279
 10
-532.3073494796
 20
512.536541053
 10
-540.6182635192
 20
511.7941652024
 10
-548.8779212896
 20
510.8063374245
 10
-557.0718314115
 20
509.5747862542
 10
-565.185621715
 20
508.1016574585
 10
-573.2050578658
 20
506.3896332466
 10
-581.1160694424
 20
504.4416342461
 10
-588.904772288
 20
502.2610579216
 10
-596.5575169389
 20
499.8517785752
 10
-604.0608625476
 20
497.2180281365
 10
-611.4016588394
 20
494.3643961632
 10
-618.5670163099
 20
491.2959490502
 10
-625.5443732802
 20
488.0179320061
 10
-632.3214809958
 20
484.5362458908
 10
-638.8864557807
 20
480.8569703781
 10
-645.2277790372
 20
476.986483165
 10
-651.3343195979
 20
472.9316387856
 10
-657.1953784291
 20
468.6995301926
 10
-662.8006737296
 20
464.297548362
 10
-668.1403558318
 20
459.7335015023
 10
-673.2050519053
 20
455.0153170311
 10
-677.9859106604
 20
450.1513395989
 10
-682.474512941
 20
445.1500330651
 10
-686.6629909341
 20
440.0201593125
 10
-690.5440132682
 20
434.7708378517
 10
-694.1107552115
 20
429.4111881935
 10
-697.3569582764
 20
423.9506278717
 10
-700.2769302193
 20
418.3986936295
 10
-702.8655599419
 20
412.7652202332
 10
-705.1182876889
 20
407.0599828446
 10
-707.0311795537
 20
401.2930546486
 10
-708.6008678738
 20
395.4745684349
 10
-709.8245959346
 20
389.6147165978
 10
-710.7002328698
 20
383.723751136
 10
-711.2262289588
 20
377.8120432579
 10
-711.4016603295
 20
371.889904567
  0
LWPOLYLINE
  5
95
330
1F
100
AcDbEntity
  8
0
  6
Continuous
 62
     7
370
    25
100
AcDbPolyline
 90
      136
 70
   128
 43
0.0
 10
-675.1016568009
 20
371.889904567
 10
-674.9243925874
 20
377.2753630364
 10
-674.3929724757
 20
382.6491986
 10
-673.5085438554
 20
387.9996691429
 10
-672.2730289761
 20
393.3152709687
 10
-670.689110047
 20
398.5845003807
 10
-668.760199434
 20
403.7958536827
 10
-666.4904843632
 20
408.9381848061
 10
-663.8848971192
 20
414.0002284729
 10
-660.9490554396
 20
418.9710770333
 10
-657.6893221204
 20
423.8399420464
 10
-654.1127603118
 20
428.5963330948
 10
-650.2271335189
 20
433.2298789704
 10
-646.0408310954
 20
437.7305660927
 10
-641.5629278485
 20
442.0886789048
 10
-636.8031393353
 20
446.294740268
 10
-631.7717399065
 20
450.3396902764
 10
-626.4796595637
 20
454.2147074425
 10
-620.9383349482
 20
457.9114471161
 10
-615.1597838465
 20
461.4218626702
 10
-609.1565157835
 20
464.7383843148
 10
-602.9415320222
 20
467.8537998879
 10
-596.5282957618
 20
470.7614336693
 10
-589.9306948845
 20
473.4549079621
 10
-583.1630121533
 20
475.928381511
 10
-576.2399177615
 20
478.1765495026
 10
-569.1763911013
 20
480.1945243561
 10
-561.9877393905
 20
481.9779549324
 10
-554.6895306174
 20
483.522907325
 10
-547.2975674633
 20
484.826162883
 10
-539.8278649513
 20
485.8847413742
 10
-532.2965945665
 20
486.6964970314
 10
-524.7200721491
 20
487.2595821106
 10
-517.114704809
 20
487.5728045189
 10
-509.4969643828
 20
487.6354490006
 10
-501.8833487843
 20
487.447455951
 10
-494.2903484766
 20
487.0091829979
 10
-486.7344054941
 20
486.3215838158
 10
-479.2318868999
 20
485.3861485207
 10
-471.7990424101
 20
484.2049632752
 10
-464.4519690041
 20
482.7804718697
 10
-457.2065773968
 20
481.1157737458
 10
-450.0785585109
 20
479.2145643914
 10
-443.0833499495
 20
477.080956527
 10
-436.2361099188
 20
474.7194801056
 10
-429.5516576235
 20
472.1353207314
 10
-423.0444769923
 20
469.3340216362
 10
-416.7286570732
 20
466.3216624939
 10
-410.6178771321
 20
463.10485942
 10
-404.7253694002
 20
459.6904669487
 10
-399.0639041726
 20
456.0858760559
 10
-393.6457302038
 20
452.2989545548
 10
-388.4825970594
 20
448.3379278862
 10
-383.5856806103
 20
444.2113195145
 10
-378.9655755822
 20
439.9280701363
 10
-374.6323030059
 20
435.4974184716
 10
-370.5952357117
 20
430.9290800774
 10
-366.8631355826
 20
426.2328301155
 10
-363.4440641467
 20
421.4189205849
 10
-360.3454421822
 20
416.4977226937
 10
-357.5739752118
 20
411.4799056732
 10
-355.1356684033
 20
406.3763771736
 10
-353.0357818667
 20
401.1981044495
 10
-351.2788902585
 20
395.9564123833
 10
-349.8687933747
 20
390.6625662529
 10
-348.8085310523
 20
385.3280697548
 10
-348.1004278723
 20
379.9644861901
 10
-347.745973951
 20
374.5833788597
 10
-347.745973951
 20
369.1964898789
 10
-348.1004278723
 20
363.8153825486
 10
-348.8085310523
 20
358.4517989838
 10
-349.8687933747
 20
353.1173024857
 10
-351.2788902585
 20
347.8234563553
 10
-353.0357818667
 20
342.5817046845
 10
-355.1356684033
 20
337.403491565
 10
-357.5739752118
 20
332.2999630654
 10
-360.3454421822
 20
327.282146045
 10
-363.4440641467
 20
322.3609481537
 10
-366.8631355826
 20
317.5470088208
 10
-370.5952357117
 20
312.8507588589
 10
-374.6323030059
 20
308.2823906624
 10
-378.9655755822
 20
303.8517986023
 10
-383.5856806103
 20
299.5685492241
 10
-388.4825970594
 20
295.4419110501
 10
-393.6457302038
 20
291.4808843815
 10
-399.0639041726
 20
287.6939628804
 10
-404.7253694002
 20
284.0894017899
 10
-410.6178771321
 20
280.6750093186
 10
-416.7286570732
 20
277.4581764424
 10
-423.0444769923
 20
274.4458471024
 10
-429.5516576235
 20
271.6445480072
 10
-436.2361099188
 20
269.060388633
 10
-443.0833499495
 20
266.6989122116
 10
-450.0785585109
 20
264.5652745449
 10
-457.2065773968
 20
262.6640651905
 10
-464.4519690041
 20
260.9993968689
 10
-471.7990424101
 20
259.5749054634
 10
-479.2318868999
 20
258.3936904156
 10
-486.7344054941
 20
257.4582551205
 10
-494.2903484766
 20
256.7706559384
 10
-501.8833487843
 20
256.3323829853
 10
-509.4969643828
 20
256.1443899357
 10
-517.114704809
 20
256.2070642197
 10
-524.7200721491
 20
256.520286628
 10
-532.2965945665
 20
257.0833717072
 10
-539.8278649513
 20
257.8950975621
 10
-547.2975674633
 20
258.9537058556
 10
-554.6895306174
 20
260.2569316113
 10
-561.9877393905
 20
261.8019138062
 10
-569.1763911013
 20
263.5853443825
 10
-576.2399177615
 20
265.603319236
 10
-583.1630121533
 20
267.8514872277
 10
-589.9306948845
 20
270.3249607766
 10
-596.5282957618
 20
273.0184350693
 10
-602.9415320222
 20
275.9260390484
 10
-609.1565157835
 20
279.0414546215
 10
-615.1597838465
 20
282.3579762661
 10
-620.9383349482
 20
285.8683918202
 10
-626.4796595637
 20
289.5651314938
 10
-631.7717399065
 20
293.4401486599
 10
-636.8031393353
 20
297.4850986683
 10
-641.5629278485
 20
301.6911600315
 10
-646.0408310954
 20
306.0492728436
 10
-650.2271335189
 20
310.5499897682
 10
-654.1127603118
 20
315.1835356438
 10
-657.6893221204
 20
319.9398968899
 10
-660.9490554396
 20
324.8087917054
 10
-663.8848971192
 20
329.7796402657
 10
-666.4904843632
 20
334.8416839325
 10
-668.760199434
 20
339.9839554512
 10
-670.689110047
 20
345.1953683579
 10
-672.2730289761
 20
350.4645381653
 10
-673.5085438554
 20
355.780139991
 10
-674.3929724757
 20
361.1306701386
 10
-674.9243925874
 20
366.5044460976
 10
-675.1016568009
 20
371.889904567
  0
LINE
  5
96
330
1F
100
AcDbEntity
  8
0
  6
Continuous
 62
     7
370
    25
100
AcDbLine
 10
-711.4016603295
 20
-176.1100734985
 30
0.0
 11
-311.401654369
 21
-176.1100734985
 31
0.0
  0
LWPOLYLINE
  5
97
330
1F
100
AcDbEntity
  8
0
  6
Continuous
 62
     1
370
    25
100
AcDbPolyline
 90
       39
 70
   128
 43
0.0
 10
-511.4016573493
 20
58.0472205365
 10
-503.0265267555
 20
58.1712578022
 10
-494.6660887067
 20
58.5432056868
 10
-486.3350115333
 20
59.1623638356
 10
-478.0479076866
 20
60.0276742661
 10
-469.8193188373
 20
61.1376170599
 10
-461.6636786227
 20
62.4902252638
 10
-453.5952996079
 20
64.0831444943
 10
-445.6283267204
 20
65.9135882342
 10
-437.7767484252
 20
67.9783229315
 10
-430.0543259446
 20
70.2737276041
 10
-422.4746193353
 20
72.7957938397
 10
-415.0509204332
 20
75.5400810921
 10
-407.7962528531
 20
78.5018060887
 10
-400.7233496372
 20
81.6757236206
 10
-393.8446085517
 20
85.056290456
 10
-387.1720995371
 20
88.6375759327
 10
-380.7175349061
 20
92.4132917607
 10
-374.4922320906
 20
96.3768516266
 10
-368.5071210925
 20
100.5212221825
 10
-362.7726923291
 20
104.8392210686
 10
-357.2990040843
 20
109.3232188904
 10
-352.095667607
 20
113.9653478348
 10
-347.1718173091
 20
118.7574718678
 10
-342.5360660617
 20
123.6912165367
 10
-338.1965797011
 20
128.7578795636
 10
-334.1609429185
 20
133.9486096585
 10
-330.4362486665
 20
139.2542873108
 10
-327.0290236537
 20
144.6655843937
 10
-323.9452581469
 20
150.1730237686
 10
-321.1903612677
 20
155.7669792855
 10
-318.7691460912
 20
161.4375565731
 10
-316.6858743493
 20
167.174891063
 10
-314.9442117278
 20
172.9688499653
 10
-313.5471980635
 20
178.8093004906
 10
-312.497277147
 20
184.6860204422
 10
-311.7963116233
 20
190.588638612
 10
-311.4455233876
 20
196.5068731987
 10
-311.401654369
 20
199.468568393
  0
LWPOLYLINE
  5
98
330
1F
100
AcDbEntity
  8
0
  6
Continuous
 62
     1
370
    25
100
AcDbPolyline
 90
       39
 70
   128
 43
0.0
 10
-711.4016603295
 20
199.468568393
 10
-711.357791311
 20
196.5068731987
 10
-711.0070030753
 20
190.588638612
 10
-710.3060375516
 20
184.6860204422
 10
-709.256116635
 20
178.8093004906
 10
-707.8591029708
 20
172.9688499653
 10
-706.1174403493
 20
167.174891063
 10
-704.0341686074
 20
161.4375565731
 10
-701.6129534308
 20
155.7669792855
 10
-698.8580565516
 20
150.1730237686
 10
-695.7742910449
 20
144.6655843937
 10
-692.3670660321
 20
139.2542873108
 10
-688.6423717801
 20
133.9486096585
 10
-684.6067349974
 20
128.7578795636
 10
-680.2672486369
 20
123.6912165367
 10
-675.6314973895
 20
118.7574718678
 10
-670.7076470916
 20
113.9653478348
 10
-665.5043106143
 20
109.3232188904
 10
-660.0306223695
 20
104.8392210686
 10
-654.2961936061
 20
100.5212221825
 10
-648.3110826079
 20
96.3768516266
 10
-642.0857797925
 20
92.4132917607
 10
-635.6312151615
 20
88.6375759327
 10
-628.9587061469
 20
85.056290456
 10
-622.0799650614
 20
81.6757236206
 10
-615.0070618455
 20
78.5018060887
 10
-607.7523942653
 20
75.5400810921
 10
-600.3286953632
 20
72.7957938397
 10
-592.748988754
 20
70.2737276041
 10
-585.0265662734
 20
67.9783229315
 10
-577.1749879781
 20
65.9135882342
 10
-569.2080150906
 20
64.0831444943
 10
-561.1396360759
 20
62.4902252638
 10
-552.9839958612
 20
61.1376170599
 10
-544.7554070119
 20
60.0276742661
 10
-536.4683031652
 20
59.1623638356
 10
-528.1372259919
 20
58.5432056868
 10
-519.7767879431
 20
58.1712578022
 10
-511.4016573493
 20
58.0472205365
  0
LWPOLYLINE
  5
99
330
1F
100
AcDbEntity
  8
0
  6
Continuous
 62
     1
370
    25
100
AcDbPolyline
 90
       33
 70
   128
 43
0.0
 10
-620.64051289
 20
285.67923648
 10
-615.1597838465
 20
289.0005264962
 10
-609.1565157835
 20
292.3170481407
 10
-602.9415320222
 20
295.4324637139
 10
-596.5282957618
 20
298.340067693
 10
-589.9306948845
 20
301.0335121834
 10
-583.1630121533
 20
303.5070155346
 10
-576.2399177615
 20
305.7551835263
 10
-569.1763911013
 20
307.7731583798
 10
-561.9877393905
 20
309.5565889561
 10
-554.6895306174
 20
311.101571151
 10
-547.2975674633
 20
312.4047671044
 10
-539.8278649513
 20
313.4634052002
 10
-532.2965945665
 20
314.2751310551
 10
-524.7200721491
 20
314.8382161343
 10
-517.114704809
 20
315.1514385426
 10
-509.4969643828
 20
315.2141128266
 10
-501.8833487843
 20
315.0261197769
 10
-494.2903484766
 20
314.5878468239
 10
-486.7344054941
 20
313.9002476418
 10
-479.2318868999
 20
312.9648123467
 10
-471.7990424101
 20
311.7835674965
 10
-464.4519690041
 20
310.3591058934
 10
-457.2065773968
 20
308.6944375717
 10
-450.0785585109
 20
306.7932282173
 10
-443.0833499495
 20
304.6595905506
 10
-436.2361099188
 20
302.2981141293
 10
-429.5516576235
 20
299.7139249527
 10
-423.0444769923
 20
296.9126556599
 10
-416.7286570732
 20
293.9003263199
 10
-410.6178771321
 20
290.6834636414
 10
-404.7253694002
 20
287.2690711701
 10
-402.1628018085
 20
285.67923648
  0
LINE
  5
9A
330
1F
100
AcDbEntity
  8
0
  6
Continuous
 62
     1
370
    25
100
AcDbLine
 10
-511.4016573493
 20
58.0472205365
 30
0.0
 11
-311.401654369
 21
58.0472205365
 31
0.0
  0
LINE
  5
9B
330
1F
100
AcDbEntity
  8
0
  6
Continuous
 62
     1
370
    25
100
AcDbLine
 10
-711.4016603295
 20
58.0472205365
 30
0.0
 11
-511.4016573493
 21
58.0472205365
 31
0.0
  0
LINE
  5
9C
330
1F
100
AcDbEntity
  8
0
  6
Continuous
 62
     7
370
    25
100
AcDbLine
 10
766.205624038
 20
58.0472205365
 30
0.0
 11
766.205624038
 21
-176.1100734985
 31
0.0
  0
LINE
  5
9D
330
1F
100
AcDbEntity
  8
0
  6
Continuous
 62
     7
370
    25
100
AcDbLine
 10
1166.2056299985
 20
-176.1100734985
 30
0.0
 11
1166.2056299985
 21
58.0472205365
 31
0.0
  0
LINE
  5
9E
330
1F
100
AcDbEntity
  8
0
  6
Continuous
 62
     7
370
    25
100
AcDbLine
 10
1166.2056299985
 20
58.0472205365
 30
0.0
 11
1166.2056299985
 21
199.468568393
 31
0.0
  0
LINE
  5
9F
330
1F
100
AcDbEntity
  8
0
  6
Continuous
 62
     7
370
    25
100
AcDbLine
 10
766.205624038
 20
199.468568393
 30
0.0
 11
766.205624038
 21
58.0472205365
 31
0.0
  0
LINE
  5
A0
330
1F
100
AcDbEntity
  8
0
  6
Continuous
 62
     7
370
    25
100
AcDbLine
 10
766.205624038
 20
371.889904567
 30
0.0
 11
766.205624038
 21
199.468568393
 31
0.0
  0
LINE
  5
A1
330
1F
100
AcDbEntity
  8
0
  6
Continuous
 62
     7
370
    25
100
AcDbLine
 10
1166.2056299985
 20
199.468568393
 30
0.0
 11
1166.2056299985
 21
371.889904567
 31
0.0
  0
LINE
  5
A2
330
1F
100
AcDbEntity
  8
0
  6
Continuous
 62
     7
370
    25
100
AcDbLine
 10
766.205624038
 20
-176.1100734985
 30
0.0
 11
1166.2056299985
 21
-176.1100734985
 31
0.0
  0
LWPOLYLINE
  5
A3
330
1F
100
AcDbEntity
  8
0
  6
Continuous
 62
     7
370
    25
100
AcDbPolyline
 90
       76
 70
   128
 43
0.0
 10
766.205624038
 20
371.889904567
 10
766.3810554088
 20
377.8120432579
 10
766.9070514978
 20
383.723751136
 10
767.782688433
 20
389.6147165978
 10
769.0064164937
 20
395.4745684349
 10
770.5761048139
 20
401.2930546486
 10
772.4889966787
 20
407.0599828446
 10
774.7417244256
 20
412.7652202332
 10
777.3303541482
 20
418.3986936295
 10
780.2503260911
 20
423.9506278717
 10
783.496529156
 20
429.4111881935
 10
787.0632710994
 20
434.7708378517
 10
790.9442934335
 20
440.0201593125
 10
795.1327714265
 20
445.1500330651
 10
799.6213737071
 20
450.1513395989
 10
804.4022324622
 20
455.0153170311
 10
809.4669285358
 20
459.7335015023
 10
814.806610638
 20
464.297548362
 10
820.4119059385
 20
468.6995301926
 10
826.2729647697
 20
472.9316387856
 10
832.3795053304
 20
476.986483165
 10
838.7208285869
 20
480.8569703781
 10
845.2858033717
 20
484.5362458908
 10
852.0629110873
 20
488.0179320061
 10
859.0402680576
 20
491.2959490502
 10
866.2056255282
 20
494.3643961632
 10
873.54642182
 20
497.2180281365
 10
881.0497674287
 20
499.8517785752
 10
888.7025120795
 20
502.2610579216
 10
896.4912149251
 20
504.4416342461
 10
904.4022265018
 20
506.3896332466
 10
912.4216626526
 20
508.1016574585
 10
920.535452956
 20
509.5747862542
 10
928.7293630779
 20
510.8063374245
 10
936.9890208483
 20
511.7941652024
 10
945.299934888
 20
512.536541053
 10
953.6475234792
 20
513.032213279
 10
962.0171429717
 20
513.2802878105
 10
970.3941110649
 20
513.2802878105
 10
978.7637305573
 20
513.032213279
 10
987.1113191486
 20
512.536541053
 10
995.4222331882
 20
511.7941652024
 10
1003.6818909586
 20
510.8063374245
 10
1011.8758010805
 20
509.5747862542
 10
1019.989591384
 20
508.1016574585
 10
1028.0090275348
 20
506.3896332466
 10
1035.9200391114
 20
504.4416342461
 10
1043.708741957
 20
502.2610579216
 10
1051.3614866079
 20
499.8517785752
 10
1058.8648322166
 20
497.2180281365
 10
1066.2056285084
 20
494.3643961632
 10
1073.3709859789
 20
491.2959490502
 10
1080.3483429492
 20
488.0179320061
 10
1087.1254506648
 20
484.5362458908
 10
1093.6904254497
 20
480.8569703781
 10
1100.0317487062
 20
476.986483165
 10
1106.1382892669
 20
472.9316387856
 10
1111.9993480981
 20
468.6995301926
 10
1117.6046433986
 20
464.297548362
 10
1122.9443255008
 20
459.7335015023
 10
1128.0090215743
 20
455.0153170311
 10
1132.7898803294
 20
450.1513395989
 10
1137.2784826101
 20
445.1500330651
 10
1141.4669606031
 20
440.0201593125
 10
1145.3479829372
 20
434.7708378517
 10
1148.9147248805
 20
429.4111881935
 10
1152.1609279454
 20
423.9506278717
 10
1155.0808998883
 20
418.3986936295
 10
1157.6695296109
 20
412.7652202332
 10
1159.9222573579
 20
407.0599828446
 10
1161.8351492227
 20
401.2930546486
 10
1163.4048375428
 20
395.4745684349
 10
1164.6285656036
 20
389.6147165978
 10
1165.5042025388
 20
383.723751136
 10
1166.0301986278
 20
377.8120432579
 10
1166.2056299985
 20
371.889904567
  0
LINE
  5
A4
330
1F
100
AcDbEntity
  8
0
  6
Continuous
 62
     1
370
    25
100
AcDbLine
 10
766.205624038
 20
58.0472205365
 30
0.0
 11
1166.2056299985
 21
58.0472205365
 31
0.0
  0
LWPOLYLINE
  5
A5
330
1F
100
AcDbEntity
  8
0
  6
Continuous
 62
     1
370
    25
100
AcDbPolyline
 90
       77
 70
   128
 43
0.0
 10
766.205624038
 20
199.468568393
 10
766.2494930566
 20
202.4302635872
 10
766.6002812923
 20
208.3484981739
 10
767.301246816
 20
214.2511163437
 10
768.3511677325
 20
220.1278362953
 10
769.7481813968
 20
225.9682868206
 10
771.4898440183
 20
231.762245723
 10
773.5731157602
 20
237.4995802128
 10
775.9943309367
 20
243.1701873028
 10
778.7492278159
 20
248.7641130173
 10
781.8329933227
 20
254.2715523922
 10
785.2402183355
 20
259.6828494751
 10
788.9649125875
 20
264.9885271275
 10
793.0005493701
 20
270.1792572224
 10
797.3400357307
 20
275.2459202492
 10
801.9757869781
 20
280.1796649182
 10
806.899637276
 20
284.9717889511
 10
812.1029737533
 20
289.6139476979
 10
817.5766619981
 20
294.0979157173
 10
823.3110907615
 20
298.4159146035
 10
829.2962017596
 20
302.5603149617
 10
835.5215045751
 20
306.5238450253
 10
841.9760692061
 20
310.2995608532
 10
848.6485782207
 20
313.8808463299
 10
855.5273193062
 20
317.2614131653
 10
862.6002225221
 20
320.4353306973
 10
869.8548901022
 20
323.3970556938
 10
877.2785890043
 20
326.141313144
 10
884.8582956136
 20
328.663424083
 10
892.5807180942
 20
330.9587989533
 10
900.4322963894
 20
333.0235634529
 10
908.3992692769
 20
334.8539624893
 10
916.4676482917
 20
336.446896621
 10
924.6232885063
 20
337.7995048249
 10
932.8518773556
 20
338.9094625199
 10
941.1389812023
 20
339.7748027527
 10
949.4700583757
 20
340.393916198
 10
957.8304964245
 20
340.7658491814
 10
966.2056270183
 20
340.8899460518
 10
974.5807576121
 20
340.7658491814
 10
982.9411956609
 20
340.393916198
 10
991.2722728342
 20
339.7748027527
 10
999.5593766809
 20
338.9094625199
 10
1007.7879655302
 20
337.7995048249
 10
1015.9436057449
 20
336.446896621
 10
1024.0119847596
 20
334.8539624893
 10
1031.9789576471
 20
333.0235634529
 10
1039.8305359424
 20
330.9587989533
 10
1047.552958423
 20
328.663424083
 10
1055.1326650322
 20
326.141313144
 10
1062.5563639343
 20
323.3970556938
 10
1069.8110315145
 20
320.4353306973
 10
1076.8839347304
 20
317.2614131653
 10
1083.7626758159
 20
313.8808463299
 10
1090.4351848305
 20
310.2995608532
 10
1096.8897494615
 20
306.5238450253
 10
1103.1150522769
 20
302.5603149617
 10
1109.1001632751
 20
298.4159146035
 10
1114.8345920385
 20
294.0979157173
 10
1120.3082802833
 20
289.6139476979
 10
1125.5116167606
 20
284.9717889511
 10
1130.4354670585
 20
280.1796649182
 10
1135.0712183059
 20
275.2459202492
 10
1139.4107046664
 20
270.1792572224
 10
1143.4463414491
 20
264.9885271275
 10
1147.1710357011
 20
259.6828494751
 10
1150.5782607139
 20
254.2715523922
 10
1153.6620262206
 20
248.7641130173
 10
1156.4169230998
 20
243.1701873028
 10
1158.8381382764
 20
237.4995802128
 10
1160.9214100183
 20
231.762245723
 10
1162.6630726398
 20
225.9682868206
 10
1164.060086304
 20
220.1278362953
 10
1165.1100072206
 20
214.2511163437
 10
1165.8109727443
 20
208.3484981739
 10
1166.16176098
 20
202.4302635872
 10
1166.2056299985
 20
199.468568393
  0
LINE
  5
A6
330
1F
100
AcDbEntity
  8
0
  6
Continuous
 62
     7
370
    25
100
AcDbLine
 10
339.3372708929
 20
1044.574694158
 30
0.0
 11
166.9159086419
 21
1044.574694158
 31
0.0
  0
LINE
  5
A7
330
1F
100
AcDbEntity
  8
0
  6
Continuous
 62
     7
370
    25
100
AcDbLine
 10
166.9159086419
 20
644.5746881975
 30
0.0
 11
339.3372708929
 21
644.5746881975
 31
0.0
  0
LINE
  5
A8
330
1F
100
AcDbEntity
  8
0
  6
Continuous
 62
     7
370
    25
100
AcDbLine
 10
166.9159086419
 20
1044.574694158
 30
0.0
 11
108.337264694
 21
1044.574694158
 31
0.0
  0
LINE
  5
A9
330
1F
100
AcDbEntity
  8
0
  6
Continuous
 62
     7
370
    25
100
AcDbLine
 10
108.337264694
 20
644.5746881975
 30
0.0
 11
166.9159086419
 21
644.5746881975
 31
0.0
  0
CIRCLE
  5
AA
330
1F
100
AcDbEntity
  8
0
  6
Continuous
 62
     7
370
    25
100
AcDbCircle
 10
108.337264694
 20
844.5746911778
 30
0.0
 40
163.6999999999999
  0
CIRCLE
  5
AB
330
1F
100
AcDbEntity
  8
0
  6
Continuous
 62
     7
370
    25
100
AcDbCircle
 10
108.337264694
 20
844.5746911778
 30
0.0
 40
200.0
  0
LWPOLYLINE
  5
AC
330
1F
100
AcDbEntity
  8
0
  6
Continuous
 62
     7
370
    25
100
AcDbPolyline
 90
       77
 70
   128
 43
0.0
 10
339.3372708929
 20
1044.574694158
 10
345.2593797815
 20
1044.3992627873
 10
351.1711025608
 20
1043.8732666983
 10
357.0620531214
 20
1042.9976297631
 10
362.9219347609
 20
1041.7739017023
 10
368.7404209745
 20
1040.2042133822
 10
374.5073193682
 20
1038.2913215174
 10
380.2125269545
 20
1036.0385937704
 10
385.8460301531
 20
1033.4499640478
 10
391.397934593
 20
1030.5299921049
 10
396.8585247171
 20
1027.28378904
 10
402.2181743753
 20
1023.7170470967
 10
407.4675256384
 20
1019.8360247626
 10
412.5973397863
 20
1015.6475467696
 10
417.5986463202
 20
1011.1589444889
 10
422.4626535547
 20
1006.3780857338
 10
427.1808380259
 20
1001.3133896603
 10
431.7448848856
 20
995.9737075581
 10
436.1468369139
 20
990.3684122576
 10
440.3789455069
 20
984.5073534264
 10
444.4338196886
 20
978.4008128657
 10
448.3043069017
 20
972.0594896092
 10
451.9836122168
 20
965.4945148243
 10
455.465298332
 20
958.7174071087
 10
458.7432557714
 20
951.7400501384
 10
461.8117624891
 20
944.5746926679
 10
464.6653646601
 20
937.2338963761
 10
467.2991449011
 20
929.7305507674
 10
469.7083944452
 20
922.0778061165
 10
471.8889409674
 20
914.2891032709
 10
473.8369697702
 20
906.3780916943
 10
475.5490237844
 20
898.3586555435
 10
477.0221227777
 20
890.24486524
 10
478.2536739481
 20
882.0509551181
 10
479.241501726
 20
873.7912973477
 10
479.983907379
 20
865.4803833081
 10
480.4795498026
 20
857.1327947168
 10
480.7275945318
 20
848.7631752244
 10
480.7275945318
 20
840.3862071312
 10
480.4795498026
 20
832.0165876387
 10
479.983907379
 20
823.6689990475
 10
479.241501726
 20
815.3580850078
 10
478.2536739481
 20
807.0984272374
 10
477.0221227777
 20
798.9045171155
 10
475.5490237844
 20
790.7907268121
 10
473.8369697702
 20
782.7712906613
 10
471.8889409674
 20
774.8602790846
 10
469.7083944452
 20
767.071576239
 10
467.2991449011
 20
759.4188315882
 10
464.6653646601
 20
751.9154859795
 10
461.8117624891
 20
744.5746896877
 10
458.7432557714
 20
737.4093322171
 10
455.465298332
 20
730.4319752468
 10
451.9836122168
 20
723.6548675312
 10
448.3043069017
 20
717.0898927464
 10
444.4338196886
 20
710.7485694899
 10
440.3789455069
 20
704.6420289292
 10
436.1468369139
 20
698.780970098
 10
431.7448848856
 20
693.1756747975
 10
427.1808380259
 20
687.8359926953
 10
422.4626535547
 20
682.7712966217
 10
417.5986463202
 20
677.9904378666
 10
412.5973397863
 20
673.501835586
 10
407.4675256384
 20
669.313357593
 10
402.2181743753
 20
665.4323352589
 10
396.8585247171
 20
661.8655933155
 10
391.397934593
 20
658.6193902506
 10
385.8460301531
 20
655.6994183077
 10
380.2125269545
 20
653.1107885851
 10
374.5073193682
 20
650.8580608382
 10
368.7404209745
 20
648.9451689734
 10
362.9219347609
 20
647.3754806532
 10
357.0620531214
 20
646.1517525925
 10
351.1711025608
 20
645.2761156573
 10
345.2593797815
 20
644.7501195683
 10
339.3372708929
 20
644.5746881975
 10
339.3372708929
 20
644.5746881975
  0
LWPOLYLINE
  5
AD
330
1F
100
AcDbEntity
  8
0
  6
Continuous
 62
     7
370
    25
100
AcDbPolyline
 90
       28
 70
   128
 43
0.0
 10
243.653934635
 20
936.7000920786
 10
243.3733606709
 20
936.1145658507
 10
240.4657715929
 20
929.7013295903
 10
237.7723122013
 20
923.103728713
 10
235.2988088501
 20
916.3360459818
 10
233.050648309
 20
909.41295159
 10
231.0326734555
 20
902.3494249298
 10
229.2492577804
 20
895.160773219
 10
227.7042755855
 20
887.8625644459
 10
226.4010572803
 20
880.4706012918
 10
225.3424415362
 20
873.0008987798
 10
224.5307082308
 20
865.469628395
 10
223.9676231516
 20
857.8931059776
 10
223.6544007433
 20
850.2877386375
 10
223.5917190087
 20
842.6699982113
 10
223.7797195089
 20
835.0563826128
 10
224.217992462
 20
827.4633823051
 10
224.9055916441
 20
819.9074393226
 10
225.8410194886
 20
812.4049207284
 10
227.0222568882
 20
804.9720762386
 10
228.4467408431
 20
797.6250028326
 10
230.1113942636
 20
790.3796112253
 10
232.0125961674
 20
783.2515923394
 10
234.1462487352
 20
776.256383778
 10
236.5077251566
 20
769.4091437473
 10
239.091899432
 20
762.724691452
 10
241.893183626
 20
756.2175108208
 10
243.653934635
 20
752.4492902769
  0
LWPOLYLINE
  5
AE
330
1F
100
AcDbEntity
  8
0
  6
Continuous
 62
     1
370
    25
100
AcDbPolyline
 90
       39
 70
   128
 43
0.0
 10
308.3372676743
 20
844.5746911778
 10
308.2132155073
 20
836.199560584
 10
307.8412825239
 20
827.8391225352
 10
307.222109474
 20
819.5080453618
 10
306.3567990435
 20
811.2209415151
 10
305.2468711508
 20
802.9923526658
 10
303.8942480457
 20
794.8367124512
 10
302.3013288153
 20
786.7683334364
 10
300.4708999765
 20
778.8013605489
 10
298.4061652792
 20
770.9497822537
 10
296.1107457054
 20
763.2273597731
 10
293.5886794699
 20
755.6476531638
 10
290.8443922174
 20
748.2239542617
 10
287.882682122
 20
740.9692866816
 10
284.7087645901
 20
733.8963834657
 10
281.3281828535
 20
727.0176423802
 10
277.7468973768
 20
720.3451333656
 10
273.9711815489
 20
713.8905687346
 10
270.0076365841
 20
707.6652659191
 10
265.8632511271
 20
701.680154921
 10
261.5452671421
 20
695.9457261576
 10
257.0612693203
 20
690.4720379128
 10
252.4191403759
 20
685.2687014355
 10
247.6270014418
 20
680.3448511376
 10
242.6932567728
 20
675.7090998902
 10
237.626593746
 20
671.3696135296
 10
232.4358636511
 20
667.333976747
 10
227.1301934493
 20
663.609282495
 10
221.7188889158
 20
660.2020574822
 10
216.2114420903
 20
657.1182919754
 10
210.6175089252
 20
654.3633950962
 10
204.9469167364
 20
651.9421799197
 10
199.2095971477
 20
649.8589081778
 10
193.4156307948
 20
648.1172455563
 10
187.5751653684
 20
646.720231892
 10
181.6984677685
 20
645.6703109755
 10
175.795827247
 20
644.9693454518
 10
169.877615012
 20
644.6185572161
 10
166.9159086419
 20
644.5746881975
  0
LWPOLYLINE
  5
AF
330
1F
100
AcDbEntity
  8
0
  6
Continuous
 62
     1
370
    25
100
AcDbPolyline
 90
       39
 70
   128
 43
0.0
 10
166.9159086419
 20
1044.574694158
 10
169.877615012
 20
1044.5308251395
 10
175.795827247
 20
1044.1800369038
 10
181.6984677685
 20
1043.4790713801
 10
187.5751653684
 20
1042.4291504635
 10
193.4156307948
 20
1041.0321367993
 10
199.2095971477
 20
1039.2904741778
 10
204.9469167364
 20
1037.2072024359
 10
210.6175089252
 20
1034.7859872593
 10
216.2114420903
 20
1032.0310903801
 10
221.7188889158
 20
1028.9473248734
 10
227.1301934493
 20
1025.5400998606
 10
232.4358636511
 20
1021.8154056086
 10
237.626593746
 20
1017.7797688259
 10
242.6932567728
 20
1013.4402824654
 10
247.6270014418
 20
1008.804531218
 10
252.4191403759
 20
1003.8806809201
 10
257.0612693203
 20
998.6773444428
 10
261.5452671421
 20
993.203656198
 10
265.8632511271
 20
987.4692274346
 10
270.0076365841
 20
981.4841164364
 10
273.9711815489
 20
975.258813621
 10
277.7468973768
 20
968.80424899
 10
281.3281828535
 20
962.1317399754
 10
284.7087645901
 20
955.2529988899
 10
287.882682122
 20
948.180095674
 10
290.8443922174
 20
940.9254280938
 10
293.5886794699
 20
933.5017291917
 10
296.1107457054
 20
925.9220225825
 10
298.4061652792
 20
918.1996001019
 10
300.4708999765
 20
910.3480218066
 10
302.3013288153
 20
902.3810489191
 10
303.8942480457
 20
894.3126699044
 10
305.2468711508
 20
886.1570296897
 10
306.3567990435
 20
877.9284408404
 10
307.222109474
 20
869.6413369937
 10
307.8412825239
 20
861.3102598204
 10
308.2132155073
 20
852.9498217716
 10
308.3372676743
 20
844.5746911778
  0
LWPOLYLINE
  5
B0
330
1F
100
AcDbEntity
  8
0
  6
Continuous
 62
     1
370
    25
100
AcDbPolyline
 90
       60
 70
   128
 43
0.0
 10
142.6518412304
 20
1004.6378089203
 10
140.2213426304
 20
1003.8621438755
 10
135.0099520755
 20
1001.9332332625
 10
129.8676656557
 20
999.6635181917
 10
124.8056145382
 20
997.0579309477
 10
119.8347669092
 20
994.1220892681
 10
114.9658865293
 20
990.8623559489
 10
110.2095177162
 20
987.2857941403
 10
105.575962411
 20
983.4001673474
 10
101.0752559637
 20
979.2138649239
 10
96.71714548
 20
974.735961677
 10
92.5110692156
 20
969.9761731638
 10
88.4661396963
 20
964.944773735
 10
84.5911132169
 20
959.6526933922
 10
80.8943828565
 20
954.1113687767
 10
77.3839579893
 20
948.332817675
 10
74.0674363447
 20
942.329549612
 10
70.9520058704
 20
936.1145658507
 10
68.0444130671
 20
929.7013295903
 10
65.3509536756
 20
923.103728713
 10
62.8774577749
 20
916.3360459818
 10
60.6292897833
 20
909.41295159
 10
58.6113149298
 20
902.3494249298
 10
56.8279029799
 20
895.160773219
 10
55.2829170597
 20
887.8625644459
 10
53.9797024799
 20
880.4706012918
 10
52.9210830105
 20
873.0008987798
 10
52.109349705
 20
865.469628395
 10
51.5462646258
 20
857.8931059776
 10
51.2330422175
 20
850.2877386375
 10
51.1703642083
 20
842.6699982113
 10
51.3583647085
 20
835.0563826128
 10
51.7966376615
 20
827.4633823051
 10
52.4842331183
 20
819.9074393226
 10
53.4196609629
 20
812.4049207284
 10
54.6008983624
 20
804.9720762386
 10
56.0253860426
 20
797.6250028326
 10
57.6900357378
 20
790.3796112253
 10
59.5912450922
 20
783.2515923394
 10
61.7248939348
 20
776.256383778
 10
64.0863629055
 20
769.4091437473
 10
66.6705409062
 20
762.724691452
 10
69.4718251002
 20
756.2175108208
 10
72.4841544402
 20
749.9016909017
 10
75.7009984923
 20
743.7909109606
 10
79.1153965515
 20
737.8984032287
 10
82.7199501914
 20
732.2369380011
 10
86.5068549288
 20
726.8187640323
 10
90.4679058117
 20
721.6556308879
 10
94.5945262906
 20
716.7587144388
 10
98.8777784628
 20
712.1386094107
 10
103.308386821
 20
707.8053368344
 10
107.8767546974
 20
703.7682695402
 10
112.5729882156
 20
700.0361694111
 10
117.3869168383
 20
696.6170979752
 10
122.3081128669
 20
693.5184760107
 10
127.3259205741
 20
690.7470090403
 10
132.4294714255
 20
688.3087022318
 10
137.6077124846
 20
686.2088156952
 10
142.6518412304
 20
684.5115734352
  0
INSERT
  5
BC
330
1F
100
AcDbEntity
  8
FORMAT
 62
     7
100
AcDbBlockReference
  2
SW_CENTERMARKSYMBOL_0
 10
108.337264694
 20
844.5746911778
 30
0.0
  0
LINE
  5
BD
330
1F
100
AcDbEntity
  8
0
  6
Continuous
 62
     7
370
    25
100
AcDbLine
 10
339.3372708929
 20
-394.8924016954
 30
0.0
 11
166.9159086419
 21
-394.8924016954
 31
0.0
  0
LINE
  5
BE
330
1F
100
AcDbEntity
  8
0
  6
Continuous
 62
     7
370
    25
100
AcDbLine
 10
166.9159086419
 20
-794.8924076559
 30
0.0
 11
339.3372708929
 21
-794.8924076559
 31
0.0
  0
LINE
  5
BF
330
1F
100
AcDbEntity
  8
0
  6
Continuous
 62
     7
370
    25
100
AcDbLine
 10
108.337264694
 20
-794.8924076559
 30
0.0
 11
166.9159086419
 21
-794.8924076559
 31
0.0
  0
LINE
  5
C0
330
1F
100
AcDbEntity
  8
0
  6
Continuous
 62
     7
370
    25
100
AcDbLine
 10
166.9159086419
 20
-394.8924016954
 30
0.0
 11
108.337264694
 21
-394.8924016954
 31
0.0
  0
LWPOLYLINE
  5
C1
330
1F
100
AcDbEntity
  8
0
  6
Continuous
 62
     7
370
    25
100
AcDbPolyline
 90
      151
 70
   128
 43
0.0
 10
339.3372708929
 20
-794.8924076559
 10
345.2593797815
 20
-794.7169762852
 10
351.1711025608
 20
-794.1909801962
 10
357.0620531214
 20
-793.315343261
 10
362.9219347609
 20
-792.0916152002
 10
368.7404209745
 20
-790.5219268801
 10
374.5073193682
 20
-788.6090350153
 10
380.2125269545
 20
-786.3563072683
 10
385.8460301531
 20
-783.7676775457
 10
391.397934593
 20
-780.8477056028
 10
396.8585247171
 20
-777.6015025379
 10
402.2181743753
 20
-774.0347605946
 10
407.4675256384
 20
-770.1537382605
 10
412.5973397863
 20
-765.9652602674
 10
417.5986463202
 20
-761.4766579868
 10
422.4626535547
 20
-756.6957992317
 10
427.1808380259
 20
-751.6311031582
 10
431.7448848856
 20
-746.291421056
 10
436.1468369139
 20
-740.6861257555
 10
440.3789455069
 20
-734.8250669243
 10
444.4338196886
 20
-728.7185263636
 10
448.3043069017
 20
-722.3772031071
 10
451.9836122168
 20
-715.8122283222
 10
455.465298332
 20
-709.0351206066
 10
458.7432557714
 20
-702.0577636363
 10
461.8117624891
 20
-694.8924061658
 10
464.6653646601
 20
-687.551609874
 10
467.2991449011
 20
-680.0482642652
 10
469.7083944452
 20
-672.3955196144
 10
471.8889409674
 20
-664.6068167688
 10
473.8369697702
 20
-656.6958051922
 10
475.5490237844
 20
-648.6763690414
 10
477.0221227777
 20
-640.5625787379
 10
478.2536739481
 20
-632.368668616
 10
479.241501726
 20
-624.1090108456
 10
479.983907379
 20
-615.798096806
 10
480.4795498026
 20
-607.4505082147
 10
480.7275945318
 20
-599.0808887223
 10
480.7275945318
 20
-590.7039206291
 10
480.4795498026
 20
-582.3343011366
 10
479.983907379
 20
-573.9867125453
 10
479.241501726
 20
-565.6757985057
 10
478.2536739481
 20
-557.4161407353
 10
477.0221227777
 20
-549.2222306134
 10
475.5490237844
 20
-541.1084403099
 10
473.8369697702
 20
-533.0890041592
 10
471.8889409674
 20
-525.1779925825
 10
469.7083944452
 20
-517.3892897369
 10
467.2991449011
 20
-509.7365450861
 10
464.6653646601
 20
-502.2331994774
 10
461.8117624891
 20
-494.8924031856
 10
458.7432557714
 20
-487.727045715
 10
455.465298332
 20
-480.7496887447
 10
451.9836122168
 20
-473.9725810291
 10
448.3043069017
 20
-467.4076062443
 10
444.4338196886
 20
-461.0662829878
 10
440.3789455069
 20
-454.9597424271
 10
436.1468369139
 20
-449.0986835958
 10
431.7448848856
 20
-443.4933882954
 10
427.1808380259
 20
-438.1537061932
 10
422.4626535547
 20
-433.0890101196
 10
417.5986463202
 20
-428.3081513645
 10
412.5973397863
 20
-423.8195490839
 10
407.4675256384
 20
-419.6310710909
 10
402.2181743753
 20
-415.7500487568
 10
396.8585247171
 20
-412.1833068134
 10
391.397934593
 20
-408.9371037485
 10
385.8460301531
 20
-406.0171318056
 10
380.2125269545
 20
-403.428502083
 10
374.5073193682
 20
-401.175774336
 10
368.7404209745
 20
-399.2628824713
 10
362.9219347609
 20
-397.6931941511
 10
357.0620531214
 20
-396.4694660904
 10
351.1711025608
 20
-395.5938291552
 10
345.2593797815
 20
-395.0678330662
 10
339.3372708929
 20
-394.8924016954
 10
333.4151471031
 20
-395.0678330662
 10
327.5034243238
 20
-395.5938291552
 10
321.6124737633
 20
-396.4694660904
 10
315.752607025
 20
-397.6931941511
 10
309.9341059101
 20
-399.2628824713
 10
304.1672075165
 20
-401.175774336
 10
298.4619999302
 20
-403.428502083
 10
292.8284967316
 20
-406.0171318056
 10
287.2765922916
 20
-408.9371037485
 10
281.8160170687
 20
-412.1833068134
 10
276.4563525093
 20
-415.7500487568
 10
271.2070012463
 20
-419.6310710909
 10
266.0771870983
 20
-423.8195490839
 10
261.0758805645
 20
-428.3081513645
 10
256.2118733299
 20
-433.0890101196
 10
251.49370376
 20
-438.1537061932
 10
246.9296419991
 20
-443.4933882954
 10
242.5276899708
 20
-449.0986835958
 10
238.2955664766
 20
-454.9597424271
 10
234.2407220972
 20
-461.0662829878
 10
230.3702348841
 20
-467.4076062443
 10
226.6909221185
 20
-473.9725810291
 10
223.2092285526
 20
-480.7496887447
 10
219.9312636626
 20
-487.727045715
 10
216.8627792967
 20
-494.8924031856
 10
214.009154774
 20
-502.2331994774
 10
211.3753968847
 20
-509.7365450861
 10
208.9661249888
 20
-517.3892897369
 10
206.7855710161
 20
-525.1779925825
 10
204.837564565
 20
-533.0890041592
 10
203.1255105508
 20
-541.1084403099
 10
201.6524190081
 20
-549.2222306134
 10
200.4208678377
 20
-557.4161407353
 10
199.4330326093
 20
-565.6757985057
 10
198.6906269563
 20
-573.9867125453
 10
198.1949696315
 20
-582.3343011366
 10
197.9469249022
 20
-590.7039206291
 10
197.9469249022
 20
-599.0808887223
 10
198.1949696315
 20
-607.4505082147
 10
198.6906269563
 20
-615.798096806
 10
199.4330326093
 20
-624.1090108456
 10
200.4208678377
 20
-632.368668616
 10
201.6524190081
 20
-640.5625787379
 10
203.1255105508
 20
-648.6763690414
 10
204.837564565
 20
-656.6958051922
 10
206.7855710161
 20
-664.6068167688
 10
208.9661249888
 20
-672.3955196144
 10
211.3753968847
 20
-680.0482642652
 10
214.009154774
 20
-687.551609874
 10
216.8627792967
 20
-694.8924061658
 10
219.9312636626
 20
-702.0577636363
 10
223.2092285526
 20
-709.0351206066
 10
226.6909221185
 20
-715.8122283222
 10
230.3702348841
 20
-722.3772031071
 10
234.2407220972
 20
-728.7185263636
 10
238.2955664766
 20
-734.8250669243
 10
242.5276899708
 20
-740.6861257555
 10
246.9296419991
 20
-746.291421056
 10
251.49370376
 20
-751.6311031582
 10
256.2118733299
 20
-756.6957992317
 10
261.0758805645
 20
-761.4766579868
 10
266.0771870983
 20
-765.9652602674
 10
271.2070012463
 20
-770.1537382605
 10
276.4563525093
 20
-774.0347605946
 10
281.8160170687
 20
-777.6015025379
 10
287.2765922916
 20
-780.8477056028
 10
292.8284967316
 20
-783.7676775457
 10
298.4619999302
 20
-786.3563072683
 10
304.1672075165
 20
-788.6090350153
 10
309.9341059101
 20
-790.5219268801
 10
315.752607025
 20
-792.0916152002
 10
321.6124737633
 20
-793.315343261
 10
327.5034243238
 20
-794.1909801962
 10
333.4151471031
 20
-794.7169762852
 10
339.3372708929
 20
-794.8924076559
  0
LWPOLYLINE
  5
C2
330
1F
100
AcDbEntity
  8
0
  6
Continuous
 62
     7
370
    25
100
AcDbPolyline
 90
      136
 70
   128
 43
0.0
 10
339.3372708929
 20
-758.5924041273
 10
333.9517975224
 20
-758.4151399137
 10
328.5780066622
 20
-757.8837198021
 10
323.2275063169
 20
-756.9992911818
 10
317.9119044912
 20
-755.7637763025
 10
312.6427048815
 20
-754.1798573734
 10
307.431306876
 20
-752.2509467604
 10
302.2890204561
 20
-749.9812316896
 10
297.2269767893
 20
-747.3756444456
 10
292.2561282289
 20
-744.439802766
 10
287.3872483147
 20
-741.1800694467
 10
282.6308721674
 20
-737.6035076382
 10
277.9973113907
 20
-733.7178808453
 10
273.4966093672
 20
-729.5315784218
 10
269.1384965551
 20
-725.0536751749
 10
264.9324202908
 20
-720.2938866617
 10
260.8875000847
 20
-715.2624872329
 10
257.0124680174
 20
-709.9704068901
 10
253.3157432449
 20
-704.4290822746
 10
249.8053127897
 20
-698.6505311729
 10
246.4887911451
 20
-692.6472631099
 10
243.3733606709
 20
-686.4322793486
 10
240.4657715929
 20
-680.0190430881
 10
237.7723122013
 20
-673.4214422109
 10
235.2988088501
 20
-666.6537594797
 10
233.050648309
 20
-659.7306650879
 10
231.0326734555
 20
-652.6671384277
 10
229.2492577804
 20
-645.4784867169
 10
227.7042755855
 20
-638.1802779438
 10
226.4010572803
 20
-630.7883147897
 10
225.3424415362
 20
-623.3186122777
 10
224.5307082308
 20
-615.7873418929
 10
223.9676231516
 20
-608.2108194755
 10
223.6544007433
 20
-600.6054521354
 10
223.5917190087
 20
-592.9877117092
 10
223.7797195089
 20
-585.3740961106
 10
224.217992462
 20
-577.781095803
 10
224.9055916441
 20
-570.2251528205
 10
225.8410194886
 20
-562.7226342263
 10
227.0222568882
 20
-555.2897897365
 10
228.4467408431
 20
-547.9427163305
 10
230.1113942636
 20
-540.6973247232
 10
232.0125961674
 20
-533.5693058373
 10
234.1462487352
 20
-526.5740972759
 10
236.5077251566
 20
-519.7268572452
 10
239.091899432
 20
-513.0424049499
 10
241.893183626
 20
-506.5352243187
 10
244.905512966
 20
-500.2194043996
 10
248.1223607433
 20
-494.1086244585
 10
251.5367532146
 20
-488.2161167266
 10
255.1413143051
 20
-482.554651499
 10
258.928206004
 20
-477.1364775302
 10
262.8892624748
 20
-471.9733443858
 10
267.0158857477
 20
-467.0764279367
 10
271.2991351259
 20
-462.4563229086
 10
275.7297420872
 20
-458.1230503323
 10
280.2981102837
 20
-454.0859830381
 10
284.9943453444
 20
-450.353882909
 10
289.8082697762
 20
-446.9348114731
 10
294.7294676674
 20
-443.8361895086
 10
299.7472697866
 20
-441.0647225382
 10
304.8508280886
 20
-438.6264157297
 10
310.0290710104
 20
-436.5265291931
 10
315.2707779778
 20
-434.7696375849
 10
320.5646241081
 20
-433.3595407011
 10
325.8991206062
 20
-432.2992783787
 10
331.2627190721
 20
-431.5911751987
 10
336.6438115013
 20
-431.2367212774
 10
342.0307302845
 20
-431.2367212774
 10
347.4118078125
 20
-431.5911751987
 10
352.7754062784
 20
-432.2992783787
 10
358.1099027765
 20
-433.3595407011
 10
363.4037489069
 20
-434.7696375849
 10
368.6454707754
 20
-436.5265291931
 10
373.8237136972
 20
-438.6264157297
 10
378.9272421968
 20
-441.0647225382
 10
383.9450592173
 20
-443.8361895086
 10
388.8662571085
 20
-446.9348114731
 10
393.6801964415
 20
-450.353882909
 10
398.376416601
 20
-454.0859830381
 10
402.9447847975
 20
-458.1230503323
 10
407.3754066599
 20
-462.4563229086
 10
411.6586560381
 20
-467.0764279367
 10
415.7852644098
 20
-471.9733443858
 10
419.7463208807
 20
-477.1364775302
 10
423.5332125795
 20
-482.554651499
 10
427.13777367
 20
-488.2161167266
 10
430.5521661413
 20
-494.1086244585
 10
433.7690288198
 20
-500.2194043996
 10
436.7813581598
 20
-506.5352243187
 10
439.5826274527
 20
-513.0424049499
 10
442.1668166292
 20
-519.7268572452
 10
444.5282930506
 20
-526.5740972759
 10
446.6619307173
 20
-533.5693058373
 10
448.5631400717
 20
-540.6973247232
 10
450.227778591
 20
-547.9427163305
 10
451.6522699965
 20
-555.2897897365
 10
452.8335148466
 20
-562.7226342263
 10
453.7689501417
 20
-570.2251528205
 10
454.4565493238
 20
-577.781095803
 10
454.8948222769
 20
-585.3740961106
 10
455.0828153265
 20
-592.9877117092
 10
455.0201410425
 20
-600.6054521354
 10
454.7069186342
 20
-608.2108194755
 10
454.143833555
 20
-615.7873418929
 10
453.3320778978
 20
-623.3186122777
 10
452.2734696043
 20
-630.7883147897
 10
450.9702438486
 20
-638.1802779438
 10
449.4252616537
 20
-645.4784867169
 10
447.6418608797
 20
-652.6671384277
 10
445.6238860262
 20
-659.7306650879
 10
443.3757180346
 20
-666.6537594797
 10
440.9022146833
 20
-673.4214422109
 10
438.2087701929
 20
-680.0190430881
 10
435.3011662138
 20
-686.4322793486
 10
432.1857208384
 20
-692.6472631099
 10
428.8692289961
 20
-698.6505311729
 10
425.3587836397
 20
-704.4290822746
 10
421.6620737684
 20
-709.9704068901
 10
417.7870268
 20
-715.2624872329
 10
413.7421065939
 20
-720.2938866617
 10
409.5360154284
 20
-725.0536751749
 10
405.1779026163
 20
-729.5315784218
 10
400.677215494
 20
-733.7178808453
 10
396.0436696184
 20
-737.6035076382
 10
391.28727857
 20
-741.1800694467
 10
386.4184135569
 20
-744.439802766
 10
381.4475649965
 20
-747.3756444456
 10
376.3855213297
 20
-749.9812316896
 10
371.2432200087
 20
-752.2509467604
 10
366.0318369043
 20
-754.1798573734
 10
360.7626372946
 20
-755.7637763025
 10
355.4470205677
 20
-756.9992911818
 10
350.0965202225
 20
-757.8837198021
 10
344.7227293623
 20
-758.4151399137
 10
339.3372708929
 20
-758.5924041273
  0
ARC
  5
C3
330
1F
100
AcDbEntity
  8
0
  6
Continuous
 62
     7
370
    25
100
AcDbCircle
 10
108.337264694
 20
-594.8924046757
 30
0.0
 40
200.0000000000001
100
AcDbArc
 50
90.0
 51
270.0
  0
ARC
  5
C4
330
1F
100
AcDbEntity
  8
0
  6
Continuous
 62
     7
370
    25
100
AcDbCircle
 10
108.337264694
 20
-594.8924046757
 30
0.0
 40
163.7000000000001
100
AcDbArc
 50
325.7524411079
 51
34.2475588921
  0
LWPOLYLINE
  5
C5
330
1F
100
AcDbEntity
  8
0
  6
Continuous
 62
     1
370
    25
100
AcDbPolyline
 90
       77
 70
   128
 43
0.0
 10
166.9159086419
 20
-394.8924016954
 10
163.9542022717
 20
-394.936270714
 10
158.0359863115
 20
-395.2870589497
 10
152.1333532405
 20
-395.9880244734
 10
146.2566481901
 20
-397.0379453899
 10
140.4161902142
 20
-398.4349590542
 10
134.6222182733
 20
-400.1766216757
 10
128.88490241
 20
-402.2598934175
 10
123.2143055645
 20
-404.6811085941
 10
117.620377056
 20
-407.4360054733
 10
112.1129286007
 20
-410.5197709801
 10
106.7016236016
 20
-413.9269959928
 10
101.3959550296
 20
-417.6516902449
 10
96.205230057
 20
-421.6873270275
 10
91.1385567856
 20
-426.0268133881
 10
86.2048214299
 20
-430.6625646355
 10
81.4126824958
 20
-435.5864149334
 10
76.7705442381
 20
-440.7897514107
 10
72.2865501416
 20
-446.2634396555
 10
67.968569882
 20
-451.9978684189
 10
63.8241769743
 20
-457.982979417
 10
59.8606394601
 20
-464.2082822325
 10
56.0849161816
 20
-470.6628468635
 10
52.5036269796
 20
-477.3353558781
 10
49.1230564189
 20
-484.2140969636
 10
45.9491351617
 20
-491.2870001795
 10
42.9874325169
 20
-498.5416677596
 10
40.2431378139
 20
-505.9653666617
 10
37.7210715783
 20
-513.545073271
 10
35.4256594551
 20
-521.2674957516
 10
33.3609247578
 20
-529.1190740468
 10
31.5304884685
 20
-537.0860469343
 10
29.9375617874
 20
-545.154425949
 10
28.5849461329
 20
-553.3100661637
 10
27.4750107897
 20
-561.538655013
 10
26.6097003592
 20
-569.8257588597
 10
25.9905347598
 20
-578.1568360331
 10
25.6186017764
 20
-586.5172740819
 10
25.4945496095
 20
-594.8924046757
 10
25.6186017764
 20
-603.2675352694
 10
25.9905347598
 20
-611.6279733183
 10
26.6097003592
 20
-619.9590504916
 10
27.4750107897
 20
-628.2461543383
 10
28.5849461329
 20
-636.4747431876
 10
29.9375617874
 20
-644.6303834023
 10
31.5304884685
 20
-652.698762417
 10
33.3609247578
 20
-660.6657353045
 10
35.4256594551
 20
-668.5173135998
 10
37.7210715783
 20
-676.2397360804
 10
40.2431378139
 20
-683.8194426896
 10
42.9874325169
 20
-691.2431415917
 10
45.9491351617
 20
-698.4978091719
 10
49.1230564189
 20
-705.5707123877
 10
52.5036269796
 20
-712.4494534733
 10
56.0849161816
 20
-719.1219624879
 10
59.8606394601
 20
-725.5765271189
 10
63.8241769743
 20
-731.8018299343
 10
67.968569882
 20
-737.7869409325
 10
72.2865501416
 20
-743.5213696958
 10
76.7705442381
 20
-748.9950579407
 10
81.4126824958
 20
-754.1983944179
 10
86.2048214299
 20
-759.1222447159
 10
91.1385567856
 20
-763.7579959633
 10
96.205230057
 20
-768.0974823238
 10
101.3959550296
 20
-772.1331191065
 10
106.7016236016
 20
-775.8578133585
 10
112.1129286007
 20
-779.2650383713
 10
117.620377056
 20
-782.348803878
 10
123.2143055645
 20
-785.1037007572
 10
128.88490241
 20
-787.5249159338
 10
134.6222182733
 20
-789.6081876757
 10
140.4161902142
 20
-791.3498502972
 10
146.2566481901
 20
-792.7468639614
 10
152.1333532405
 20
-793.796784878
 10
158.0359863115
 20
-794.4977504017
 10
163.9542022717
 20
-794.8485386373
 10
166.9159086419
 20
-794.8924076559
  0
LWPOLYLINE
  5
C6
330
1F
100
AcDbEntity
  8
0
  6
Continuous
 62
     1
370
    25
100
AcDbPolyline
 90
       33
 70
   128
 43
0.0
 10
253.1265879047
 20
-485.6535491349
 10
254.7164225948
 20
-488.2161167266
 10
258.1308150661
 20
-494.1086244585
 10
261.3476628435
 20
-500.2194043996
 10
264.3599921835
 20
-506.5352243187
 10
267.1612763775
 20
-513.0424049499
 10
269.7454506529
 20
-519.7268572452
 10
272.1069270742
 20
-526.5740972759
 10
274.2405796421
 20
-533.5693058373
 10
276.1417889965
 20
-540.6973247232
 10
277.8064275158
 20
-547.9427163305
 10
279.2309189213
 20
-555.2897897365
 10
280.4121488703
 20
-562.7226342263
 10
281.3475841654
 20
-570.2251528205
 10
282.0351833475
 20
-577.781095803
 10
282.4734563005
 20
-585.3740961106
 10
282.6614493502
 20
-592.9877117092
 10
282.5987750662
 20
-600.6054521354
 10
282.2855526579
 20
-608.2108194755
 10
281.7224675787
 20
-615.7873418929
 10
280.9107417238
 20
-623.3186122777
 10
279.8521185291
 20
-630.7883147897
 10
278.5489076746
 20
-638.1802779438
 10
277.0039105785
 20
-645.4784867169
 10
275.2205098045
 20
-652.6671384277
 10
273.2025200499
 20
-659.7306650879
 10
270.9543520582
 20
-666.6537594797
 10
268.4808636082
 20
-673.4214422109
 10
265.7874042166
 20
-680.0190430881
 10
262.8798151386
 20
-686.4322793486
 10
259.7643846643
 20
-692.6472631099
 10
256.4478630198
 20
-698.6505311729
 10
253.1265879047
 20
-704.1312602164
  0
INSERT
  5
D2
330
1F
100
AcDbEntity
  8
FORMAT
 62
     7
100
AcDbBlockReference
  2
SW_CENTERMARKSYMBOL_1
 10
108.337264694
 20
-594.8924046757
 30
0.0
  0
LINE
  5
D3
330
1F
100
AcDbEntity
  8
0
  6
Continuous
 62
     7
370
    25
100
AcDbLine
 10
707.545312443
 20
-722.2519745332
 30
0.0
 11
707.545312443
 21
-913.4509615135
 31
0.0
  0
LINE
  5
D4
330
1F
100
AcDbEntity
  8
0
  6
Continuous
 62
     7
370
    25
100
AcDbLine
 10
1107.5453308854
 20
-913.4509615134
 30
0.0
 11
1107.5453308854
 21
-722.2519745332
 31
0.0
  0
LINE
  5
D5
330
1F
100
AcDbEntity
  8
0
  6
Continuous
 62
     7
370
    25
100
AcDbLine
 10
897.6819054414
 20
-271.6914346294
 30
0.0
 11
775.7615949236
 21
-482.8636382406
 31
0.0
  0
LINE
  5
D6
330
1F
100
AcDbEntity
  8
0
  6
Continuous
 62
     7
370
    25
100
AcDbLine
 10
1122.1717624584
 20
-682.8636255734
 30
0.0
 11
1244.092069025
 21
-471.6914729128
 31
0.0
  0
SPLINE
  5
D7
330
1F
100
AcDbEntity
  8
0
  6
Continuous
 62
     7
370
    25
100
AcDbSpline
210
0.0
220
0.0
230
1.0
 70
     8
 71
     3
 72
    30
 73
    26
 74
     0
 42
0.000000001
 43
0.00000001
 40
0.0
 40
0.0
 40
0.0
 40
0.0
 40
0.0256248192872026
 40
0.0696666545808733
 40
0.1137347874055059
 40
0.1578426388470844
 40
0.2020047199460484
 40
0.2462349512353501
 40
0.2905469761313237
 40
0.3349530128521025
 40
0.3794645582302059
 40
0.4240910461855147
 40
0.4688401285536611
 40
0.5137170425027086
 40
0.5587236546597628
 40
0.6038587066497454
 40
0.6491165080324394
 40
0.6944866833434448
 40
0.7399539101884098
 40
0.7854971919904952
 40
0.8310900004362296
 40
0.8766894773239697
 40
0.9222566453542692
 40
0.9677500683395013
 40
1.0
 40
1.0
 40
1.0
 40
1.0
 10
775.7615949235608
 20
-482.8636382405555
 30
0.0
 10
774.6689324609823
 20
-484.772105173389
 30
0.0
 10
771.6982914780839
 20
-489.9606883629355
 30
0.0
 10
767.0167538369205
 20
-498.524832872672
 30
0.0
 10
761.7744175892176
 20
-508.5799706224698
 30
0.0
 10
756.745833255619
 20
-518.7442238448706
 30
0.0
 10
751.9306533310863
 20
-529.0113086329688
 30
0.0
 10
747.3334086053595
 20
-539.3778650925774
 30
0.0
 10
742.9578574250022
 20
-549.8398080542327
 30
0.0
 10
738.808168819959
 20
-560.3931141378778
 30
0.0
 10
734.8890454421564
 20
-571.0336096693183
 30
0.0
 10
731.2053383236495
 20
-581.7568200473767
 30
0.0
 10
727.762445083897
 20
-592.5579895791745
 30
0.0
 10
724.5660150410205
 20
-603.4318126945391
 30
0.0
 10
721.6220760794279
 20
-614.372438991996
 30
0.0
 10
718.9370011307401
 20
-625.3732437675532
 30
0.0
 10
716.5173890268978
 20
-636.4267187924282
 30
0.0
 10
714.3700252613338
 20
-647.524318940224
 30
0.0
 10
712.5017841812664
 20
-658.6563214673421
 30
0.0
 10
710.9193438703079
 20
-669.8117941576688
 30
0.0
 10
709.6297856002027
 20
-680.9775302047709
 30
0.0
 10
708.6375267449649
 20
-692.1391282265179
 30
0.0
 10
707.9544783428904
 20
-703.2801902824008
 30
0.0
 10
707.5987038320732
 20
-713.3185475184936
 30
0.0
 10
707.5609667497849
 20
-719.6327018448819
 30
0.0
 10
707.5453124429905
 20
-722.2519745331753
 30
0.0
  0
SPLINE
  5
D8
330
1F
100
AcDbEntity
  8
0
  6
Continuous
 62
     7
370
    25
100
AcDbSpline
210
0.0
220
0.0
230
1.0
 70
     8
 71
     3
 72
    25
 73
    21
 74
     0
 42
0.000000001
 43
0.00000001
 40
0.0
 40
0.0
 40
0.0
 40
0.0
 40
0.0593364148272683
 40
0.1173245023313953
 40
0.1742152812997997
 40
0.2302439854256539
 40
0.2856272744503197
 40
0.3405615845156474
 40
0.3952207947709149
 40
0.44975509578926
 40
0.5042894612678742
 40
0.5589204284694691
 40
0.613700156309792
 40
0.6686873086130786
 40
0.7239167964980415
 40
0.7794014847754758
 40
0.8351363805272175
 40
0.8910981062225845
 40
0.9472514249325973
 40
1.0
 40
1.0
 40
1.0
 40
1.0
 10
1107.547880769726
 20
-722.3513873079426
 30
0.0
 10
1107.55475124092
 20
-722.2434037213549
 30
0.0
 10
1107.568336062585
 20
-722.0298903064776
 30
0.0
 10
1107.635844334043
 20
-721.3358716977273
 30
0.0
 10
1107.757154523466
 20
-720.3830650982753
 30
0.0
 10
1107.948047218109
 20
-719.1566141060295
 30
0.0
 10
1108.220525463393
 20
-717.6748897694024
 30
0.0
 10
1108.586165584959
 20
-715.9486218435488
 30
0.0
 10
1109.055019735101
 20
-713.9918290463736
 30
0.0
 10
1109.635985413532
 20
-711.8191638896884
 30
0.0
 10
1110.336395745723
 20
-709.4470607594349
 30
0.0
 10
1111.16179979866
 20
-706.8939429369873
 30
0.0
 10
1112.115947843105
 20
-704.1799326043352
 30
0.0
 10
1113.200569685755
 20
-701.3268233480292
 30
0.0
 10
1114.415368818448
 20
-698.3574230152065
 30
0.0
 10
1115.758121192334
 20
-695.2961462292701
 30
0.0
 10
1117.223387738775
 20
-692.1682004415999
 30
0.0
 10
1118.806276388642
 20
-689.0013295604296
 30
0.0
 10
1120.453489413123
 20
-685.8851259912338
 30
0.0
 10
1121.613233444209
 20
-683.8494114795736
 30
0.0
 10
1122.174976155568
 20
-682.8633768385822
 30
0.0
  0
LWPOLYLINE
  5
D9
330
1F
100
AcDbEntity
  8
0
  6
Continuous
 62
     7
370
    25
100
AcDbPolyline
 90
      151
 70
   128
 43
0.0
 10
766.1239633195
 20
-831.8101491146
 10
772.1701236676
 20
-828.4629986345
 10
778.453781507
 20
-825.2649476507
 10
784.9639114856
 20
-822.2216067069
 10
791.6890852221
 20
-819.3383080627
 10
798.6175134526
 20
-816.6201178588
 10
805.7370407625
 20
-814.0718026623
 10
813.0351653431
 20
-811.697830227
 10
820.4991035282
 20
-809.502368733
 10
828.1157397455
 20
-807.4892670178
 10
835.871729249
 20
-805.6620560972
 10
843.7534586067
 20
-804.0239476444
 10
851.7471036523
 20
-802.5778127005
 10
859.8386294851
 20
-801.3261816749
 10
868.0138484224
 20
-800.2712595514
 10
876.2584305357
 20
-799.4148954753
 10
884.5578878457
 20
-798.7585797116
 10
892.8976796897
 20
-798.3034801415
 10
901.263175843
 20
-798.0503905592
 10
909.6396828604
 20
-797.9997519615
 10
918.0125125653
 20
-798.1516495064
 10
926.3669873177
 20
-798.5058216372
 10
934.6884400142
 20
-799.0616479171
 10
942.962266772
 20
-799.8181551116
 10
951.1739743434
 20
-800.7740080651
 10
959.3091274328
 20
-801.9275401136
 10
967.3534804055
 20
-803.2767196307
 10
975.2929035305
 20
-804.8191804404
 10
983.1134830793
 20
-806.5522187761
 10
990.8014791795
 20
-808.4727932806
 10
998.3434153761
 20
-810.5775402129
 10
1005.7260707297
 20
-812.8627567204
 10
1012.9364824501
 20
-815.3244388565
 10
1019.961993312
 20
-817.9582724559
 10
1026.7902911671
 20
-820.7596316143
 10
1033.4094010422
 20
-823.7235984571
 10
1039.8076950168
 20
-826.8449810073
 10
1045.9739544561
 20
-830.11830045
 10
1051.8973654006
 20
-833.5378128019
 10
1057.5675353594
 20
-837.0975186057
 10
1062.9745143837
 20
-840.7911750956
 10
1068.1088118592
 20
-844.6123058914
 10
1072.9614340435
 20
-848.5541983376
 10
1077.5238620049
 20
-852.6099394293
 10
1081.7880825739
 20
-856.7724215146
 10
1085.7466225873
 20
-861.0343377328
 10
1089.3925462545
 20
-865.3882048244
 10
1092.7194393518
 20
-869.8263905036
 10
1095.7214750776
 20
-874.3411149785
 10
1098.3933850756
 20
-878.9244463896
 10
1100.7304857775
 20
-883.5683525124
 10
1102.7286784021
 20
-888.2646764269
 10
1104.3844436876
 20
-893.0051943031
 10
1105.6948945749
 20
-897.7815728223
 10
1106.6577182558
 20
-902.5854452107
 10
1107.2712288561
 20
-907.4083808262
 10
1107.5343516314
 20
-912.2419125302
 10
1107.4466335029
 20
-917.0775671016
 10
1107.0082219847
 20
-921.9068652364
 10
1106.2198809884
 20
-926.7213245893
 10
1105.0829855548
 20
-931.5124993113
 10
1103.5995587329
 20
-936.2719952566
 10
1101.7721820169
 20
-940.9914486927
 10
1099.6040585675
 20
-945.662587128
 10
1097.0990079427
 20
-950.2772201876
 10
1094.2614134147
 20
-954.8272456958
 10
1091.0962483118
 20
-959.3046831312
 10
1087.609076018
 20
-963.7016736269
 10
1083.8060130945
 20
-968.0105134249
 10
1079.6937266461
 20
-972.2236310665
 10
1075.2794369546
 20
-976.3336466984
 10
1070.5708832352
 20
-980.33334318
 10
1065.5763223189
 20
-984.2157033396
 10
1060.3045299698
 20
-987.9739213804
 10
1054.7647429331
 20
-991.601399838
 10
1048.9666800088
 20
-995.0917739123
 10
1042.9205196608
 20
-998.4389243924
 10
1036.6368618214
 20
-1001.6369753762
 10
1030.1267318427
 20
-1004.68031632
 10
1023.4015581063
 20
-1007.5636149642
 10
1016.4731298758
 20
-1010.2818051681
 10
1009.3536025658
 20
-1012.8301203646
 10
1002.0554779853
 20
-1015.2040927999
 10
994.5915398002
 20
-1017.3995542939
 10
986.9749035829
 20
-1019.4126560091
 10
979.2189140794
 20
-1021.2398669297
 10
971.3371847217
 20
-1022.8779753825
 10
963.3435396761
 20
-1024.3241103264
 10
955.2520138432
 20
-1025.575741352
 10
947.0767949059
 20
-1026.6306634755
 10
938.8322127927
 20
-1027.4870275516
 10
930.5327554827
 20
-1028.1433433153
 10
922.1929636387
 20
-1028.5984428854
 10
913.8274674854
 20
-1028.8515324677
 10
905.450960468
 20
-1028.9021710654
 10
897.0781307631
 20
-1028.7502735205
 10
888.7236560107
 20
-1028.3961013897
 10
880.4022033141
 20
-1027.8402751098
 10
872.1283765564
 20
-1027.0837679153
 10
863.916668985
 20
-1026.1279149618
 10
855.7815158956
 20
-1024.9743829133
 10
847.7371629229
 20
-1023.6252033962
 10
839.7977397979
 20
-1022.0827425865
 10
831.9771602491
 20
-1020.3497042508
 10
824.2891641489
 20
-1018.4291297463
 10
816.7472279523
 20
-1016.324382814
 10
809.3645725987
 20
-1014.0391663065
 10
802.1541608782
 20
-1011.5774841704
 10
795.1286500164
 20
-1008.943650571
 10
788.3003521613
 20
-1006.1422914126
 10
781.6812422862
 20
-1003.1783245698
 10
775.2829483115
 20
-1000.0569420196
 10
769.1166888723
 20
-996.7836225769
 10
763.1932779278
 20
-993.364110225
 10
757.5231079689
 20
-989.8044044212
 10
752.1161289447
 20
-986.1107479313
 10
746.9818314692
 20
-982.2896171355
 10
742.1292092849
 20
-978.3477246893
 10
737.5667813235
 20
-974.2919835976
 10
733.3025607545
 20
-970.1295015123
 10
729.344020741
 20
-965.8675852941
 10
725.6980970739
 20
-961.5137182025
 10
722.3712039765
 20
-957.0755325233
 10
719.3691682508
 20
-952.5608080484
 10
716.6972582528
 20
-947.9774766373
 10
714.3601575509
 20
-943.3335705145
 10
712.3619649263
 20
-938.6372466
 10
710.7061996408
 20
-933.8967287238
 10
709.3957487534
 20
-929.1203502046
 10
708.4329250726
 20
-924.3164778162
 10
707.8194144723
 20
-919.4935422007
 10
707.556291697
 20
-914.6600104967
 10
707.6440098255
 20
-909.8243559253
 10
708.0824213437
 20
-904.9950577905
 10
708.87076234
 20
-900.1805984376
 10
710.0076577735
 20
-895.3894237156
 10
711.4910845955
 20
-890.6299277703
 10
713.3184613115
 20
-885.9104743342
 10
715.4865847609
 20
-881.2393358989
 10
717.9916353857
 20
-876.6247028393
 10
720.8292299136
 20
-872.0746773311
 10
723.9943950165
 20
-867.5972398957
 10
727.4815673104
 20
-863.2002494
 10
731.2846302339
 20
-858.891409602
 10
735.3969166823
 20
-854.6782919604
 10
739.8112063738
 20
-850.5682763285
 10
744.5197600932
 20
-846.5685798469
 10
749.5143210095
 20
-842.6862196873
 10
754.7861133586
 20
-838.9280016465
 10
760.3259003952
 20
-835.3005231889
 10
766.1239633195
 20
-831.8101491146
  0
LWPOLYLINE
  5
DA
330
1F
100
AcDbEntity
  8
0
  6
Continuous
 62
     7
370
    25
100
AcDbPolyline
 90
      136
 70
   128
 43
0.0
 10
791.7919419717
 20
-846.6279577846
 10
786.5318246289
 20
-849.8092788326
 10
781.533796805
 20
-853.1284345699
 10
776.8086859596
 20
-856.5782376992
 10
772.3667202767
 20
-860.1512142752
 10
768.2175184573
 20
-863.8396217627
 10
764.3700749023
 20
-867.6354819214
 10
760.8327162486
 20
-871.5305694007
 10
757.6130947832
 20
-875.5164398723
 10
754.7181989806
 20
-879.5844726091
 10
752.1543008185
 20
-883.7258522374
 10
749.9269399735
 20
-887.9316143565
 10
748.0409422596
 20
-892.192634895
 10
746.5003959212
 20
-896.4997046232
 10
745.308641096
 20
-900.8434865743
 10
744.4682434734
 20
-905.2145677478
 10
743.9810522464
 20
-909.6034925641
 10
743.8480894761
 20
-914.0007476578
 10
744.0696712638
 20
-918.3968135809
 10
744.6452971157
 20
-922.7821678439
 10
745.5737236997
 20
-927.1473153294
 10
746.8529490407
 20
-931.4827974167
 10
748.4802072515
 20
-935.7792193532
 10
750.4519474603
 20
-940.027292834
 10
752.7639286405
 20
-944.2178055881
 10
755.4111300486
 20
-948.3416791642
 10
758.3878170791
 20
-952.3899947822
 10
761.6875491668
 20
-956.3539735646
 10
765.3031850549
 20
-960.2250282391
 10
769.2268696246
 20
-963.9947920322
 10
773.4501339936
 20
-967.6550791308
 10
777.963808588
 20
-971.1979804856
 10
782.758137071
 20
-974.6158079256
 10
787.8227190493
 20
-977.9011705726
 10
793.1466025982
 20
-981.0469430969
 10
798.7182378351
 20
-984.0463240734
 10
804.5255743831
 20
-986.8928070885
 10
810.5560271276
 20
-989.5802339642
 10
816.7965371308
 20
-992.1027812616
 10
823.2335910596
 20
-994.4549836619
 10
829.8532356728
 20
-996.6317544951
 10
836.6411542129
 20
-998.6283690128
 10
843.5826374297
 20
-1000.4405084878
 10
850.662649435
 20
-1002.0642495691
 10
857.8658461418
 20
-1003.4960749272
 10
865.1766490212
 20
-1004.7328793365
 10
872.5792003215
 20
-1005.7719924851
 10
880.0574895085
 20
-1006.6111546448
 10
887.5953111191
 20
-1007.2485531666
 10
895.1763385177
 20
-1007.6828103157
 10
902.7841502386
 20
-1007.91298023
 10
910.402282669
 20
-1007.9385671682
 10
918.0142195127
 20
-1007.7595133447
 10
925.6034813518
 20
-1007.3762080531
 10
933.1536414523
 20
-1006.7894846253
 10
940.6483363001
 20
-1006.0006082659
 10
948.071344627
 20
-1005.011291259
 10
955.4065716051
 20
-1003.8236716787
 10
962.638148946
 20
-1002.440328596
 10
969.7503980221
 20
-1000.8642547063
 10
976.7279299653
 20
-999.0988593711
 10
983.5556245936
 20
-997.1479686179
 10
990.2187094368
 20
-995.0158160157
 10
996.7027360282
 20
-992.7070077002
 10
1002.9936628819
 20
-990.2265474643
 10
1009.0778765658
 20
-987.5798124276
 10
1014.9421805065
 20
-984.7725230028
 10
1020.5739048016
 20
-981.810776826
 10
1025.960825548
 20
-978.7009736731
 10
1031.0912763003
 20
-975.4498484397
 10
1035.9541711204
 20
-972.0644578348
 10
1040.5389474483
 20
-968.5521160374
 10
1044.8356961647
 20
-964.9204412671
 10
1048.8351028161
 20
-961.177292391
 10
1052.5284996398
 20
-957.3307753865
 10
1055.9079077104
 20
-953.3892311757
 10
1058.9659934763
 20
-949.3611877242
 10
1061.6961293456
 20
-945.2553737273
 10
1064.0924094911
 20
-941.0806729894
 10
1066.1496498504
 20
-936.8461365896
 10
1067.8633828577
 20
-932.5609250958
 10
1069.2299048587
 20
-928.2343298543
 10
1070.2462497687
 20
-923.875715204
 10
1070.9102259518
 20
-919.4945276004
 10
1071.2203898783
 20
-915.1002499954
 10
1071.1760671988
 20
-910.7023957543
 10
1070.7773580119
 20
-906.310499532
 10
1070.0251210596
 20
-901.9340655698
 10
1068.9209948008
 20
-897.5825737781
 10
1067.4673658008
 20
-893.265449323
 10
1065.6673739996
 20
-888.9920474193
 10
1063.524933786
 20
-884.7716107515
 10
1061.0446707765
 20
-880.613293805
 10
1058.2319639626
 20
-876.5260898729
 10
1055.0929061982
 20
-872.5188569082
 10
1051.6342936625
 20
-868.6002749443
 10
1047.8636074213
 20
-864.7788354508
 10
1043.7890318655
 20
-861.0628033156
 10
1039.4193783208
 20
-857.4602335736
 10
1034.764114023
 20
-853.9789273059
 10
1029.8333265568
 20
-850.6264232768
 10
1024.6376833555
 20
-847.4099867183
 10
1019.1884550791
 20
-844.3365741649
 10
1013.4974234181
 20
-841.4128532221
 10
1007.5769311428
 20
-838.6451463011
 10
1001.4397810172
 20
-836.0394574214
 10
995.0992907867
 20
-833.6014187963
 10
988.5691608114
 20
-831.3363239081
 10
981.8635708715
 20
-829.2490617385
 10
974.9970142147
 20
-827.3441669512
 10
967.9843660441
 20
-825.6257621057
 10
960.8408334698
 20
-824.0975652614
 10
953.5818659457
 20
-822.7628869355
 10
946.2231895147
 20
-821.6246255415
 10
938.7807620274
 20
-820.685229372
 10
931.2706730431
 20
-819.9467483017
 10
923.7091965139
 20
-819.4107790431
 10
916.1127170269
 20
-819.0784773121
 10
908.4976823899
 20
-818.9505608688
 10
900.8805878256
 20
-819.0273186423
 10
893.2779232886
 20
-819.3085681511
 10
885.7061681966
 20
-819.7937193719
 10
878.1817018687
 20
-820.4817047883
 10
870.7208298668
 20
-821.3710432594
 10
863.3397260441
 20
-822.4598065646
 10
856.0543429827
 20
-823.7456346108
 10
848.8804857508
 20
-825.2257415148
 10
841.8336828279
 20
-826.8969292894
 10
834.9292045441
 20
-828.755577199
 10
828.1819840546
 20
-830.797650883
 10
821.6066489501
 20
-833.0187327702
 10
815.2174474995
 20
-835.4140159955
 10
809.0281999178
 20
-837.9783082018
 10
803.0523181225
 20
-840.7060566311
 10
797.3027487694
 20
-843.5913566785
 10
791.7919419717
 20
-846.6279577846
  0
LWPOLYLINE
  5
DB
330
1F
100
AcDbEntity
  8
0
  6
Continuous
 62
     7
370
    25
100
AcDbPolyline
 90
      151
 70
   128
 43
0.0
 10
929.4656341569
 20
-290.0506626657
 10
933.7772462229
 20
-292.5404648601
 10
938.32940089
 20
-295.1691401315
 10
943.1141007937
 20
-297.9320824889
 10
948.122969248
 20
-300.8244426405
 10
953.3471975615
 20
-303.8410975645
 10
958.7776293313
 20
-306.9767600295
 10
964.4047393697
 20
-310.2260029254
 10
970.2186653141
 20
-313.5830341635
 10
976.2091865538
 20
-317.042049537
 10
982.3658190602
 20
-320.5968981166
 10
988.6777310931
 20
-324.2413985989
 10
995.1338801785
 20
-327.9691507225
 10
1001.7229077404
 20
-331.7736204301
 10
1008.4332866159
 20
-335.648103372
 10
1015.2532367609
 20
-339.585797907
 10
1022.1707779335
 20
-343.5798355272
 10
1029.1737718416
 20
-347.6232078422
 10
1036.2499642887
 20
-351.7087909296
 10
1043.386911418
 20
-355.8294244103
 10
1050.5721166889
 20
-359.9778688692
 10
1057.7929571202
 20
-364.146884935
 10
1065.0367570472
 20
-368.3291298657
 10
1072.2908197318
 20
-372.517297471
 10
1079.5424220941
 20
-376.7039933929
 10
1086.7788568593
 20
-380.8818811183
 10
1093.9873851424
 20
-385.0436789264
 10
1101.1554155725
 20
-389.1820199816
 10
1108.2703199001
 20
-393.2897108649
 10
1115.3196437313
 20
-397.3594882498
 10
1122.2910380397
 20
-401.3842226889
 10
1129.1722407264
 20
-405.356883634
 10
1135.9511951586
 20
-409.2704862088
 10
1142.6160027542
 20
-413.1181611641
 10
1149.1549624943
 20
-416.8931533567
 10
1155.5566262412
 20
-420.5888536919
 10
1161.8097348594
 20
-424.1987865662
 10
1167.9033436685
 20
-427.7165849695
 10
1173.826754613
 20
-431.1360973214
 10
1179.569575202
 20
-434.4513241646
 10
1185.1217395827
 20
-437.6564303304
 10
1190.4734831863
 20
-440.7458276337
 10
1195.6154434857
 20
-443.7140870458
 10
1200.5385747134
 20
-446.5559867816
 10
1205.2342525706
 20
-449.2665484281
 10
1209.6942452509
 20
-451.8410202088
 10
1213.9107108063
 20
-454.2748997936
 10
1217.8762761726
 20
-456.5638825924
 10
1221.5839871196
 20
-458.7039545197
 10
1225.0272898126
 20
-460.6914056854
 10
1228.2002152039
 20
-462.5226935172
 10
1231.0971261528
 20
-464.1946617547
 10
1233.7129966474
 20
-465.7043366625
 10
1236.0432116079
 20
-467.0490547709
 10
1238.0836880582
 20
-468.2265085085
 10
1239.8308329797
 20
-469.234600189
 10
1241.281580189
 20
-470.071584979
 10
1242.4334219487
 20
-470.735967472
 10
1243.2843141365
 20
-471.2265929371
 10
1243.8327710762
 20
-471.5425804049
 10
1244.07779178
 20
-471.683401743
 10
1244.0189969264
 20
-471.6488390772
 10
1243.6564602722
 20
-471.4388874479
 10
1242.9908350937
 20
-471.05392515
 10
1242.0232804291
 20
-470.4946711421
 10
1240.7555032259
 20
-469.7620877152
 10
1239.1896951202
 20
-468.8574656504
 10
1237.3286378039
 20
-467.7823390574
 10
1235.1755871211
 20
-466.5386861233
 10
1232.7343152148
 20
-465.1285884337
 10
1230.0091210635
 20
-463.5546264041
 10
1227.0047672611
 20
-461.8194777578
 10
1223.726511627
 20
-459.9261791216
 10
1220.1801493527
 20
-457.8781138612
 10
1216.3718654884
 20
-455.6788660636
 10
1212.3083508462
 20
-453.3322874634
 10
1207.9967282435
 20
-450.8424426821
 10
1203.4445735764
 20
-448.2137674107
 10
1198.6598736727
 20
-445.4508250533
 10
1193.6510157551
 20
-442.5585074886
 10
1188.4267769049
 20
-439.5418586473
 10
1182.9963451351
 20
-436.4061475127
 10
1177.3692350967
 20
-433.1569046168
 10
1171.5553091523
 20
-429.7998733787
 10
1165.5647879126
 20
-426.3408580051
 10
1159.408165943
 20
-422.7860033428
 10
1153.0962433733
 20
-419.1415089433
 10
1146.6400942879
 20
-415.4137811545
 10
1140.051066726
 20
-411.6092871121
 10
1133.3406878505
 20
-407.7348041702
 10
1126.5207377055
 20
-403.7971096352
 10
1119.6032070696
 20
-399.8030659323
 10
1112.6002026248
 20
-395.7597240348
 10
1105.5240101777
 20
-391.6741166125
 10
1098.3870525116
 20
-387.5534892146
 10
1091.2018683142
 20
-383.4050325903
 10
1083.981027883
 20
-379.2360165245
 10
1076.7372226876
 20
-375.0537989699
 10
1069.4831547346
 20
-370.8656587408
 10
1062.231547104
 20
-366.6789171907
 10
1054.9951281438
 20
-362.5010446759
 10
1047.7865840556
 20
-358.3392559919
 10
1040.6185694306
 20
-354.2009058127
 10
1033.503649298
 20
-350.0932240535
 10
1026.4543201984
 20
-346.0234253751
 10
1019.4829416951
 20
-341.9986818119
 10
1012.6017390084
 20
-338.0260452017
 10
1005.8227898445
 20
-334.1124152507
 10
999.1579822489
 20
-330.2647402954
 10
992.6190172405
 20
-326.4897511442
 10
986.2173534936
 20
-322.7940751437
 10
979.9642343386
 20
-319.1841483522
 10
973.8706255295
 20
-315.6663256141
 10
967.947214585
 20
-312.2468132622
 10
962.204393996
 20
-308.9316107538
 10
956.6522401521
 20
-305.7264985052
 10
951.3004965484
 20
-302.6370768671
 10
946.1585415174
 20
-299.6688144137
 10
941.2354102897
 20
-296.8269146779
 10
936.5397271642
 20
-294.1163804075
 10
932.0797344839
 20
-291.541884292
 10
927.8632531234
 20
-289.1080138313
 10
923.8976930255
 20
-286.819052326
 10
920.1899978835
 20
-284.6789712746
 10
916.7466793855
 20
-282.691529233
 10
913.5737697992
 20
-280.8602322771
 10
910.6768430453
 20
-279.1882488288
 10
908.060977819
 20
-277.6786195493
 10
905.7307681269
 20
-276.3338740647
 10
903.6902969449
 20
-275.156392951
 10
901.9431520234
 20
-274.1483012705
 10
900.4923837407
 20
-273.3113286459
 10
899.3405525177
 20
-272.6469400702
 10
898.4896603299
 20
-272.1563389399
 10
897.9412139269
 20
-271.8403210546
 10
897.6961826864
 20
-271.6995057992
 10
897.75497754
 20
-271.734068465
 10
898.1175141942
 20
-271.9440200943
 10
898.7831393727
 20
-272.329006727
 10
899.7506940373
 20
-272.8882364001
 10
901.0184817772
 20
-273.6208137443
 10
902.5842793462
 20
-274.5254418918
 10
904.4453366625
 20
-275.6005684848
 10
906.5983873453
 20
-276.8442214189
 10
909.0396592516
 20
-278.2543191085
 10
911.7648534029
 20
-279.8283298077
 10
914.769217742
 20
-281.5634723713
 10
918.0474628394
 20
-283.4567284206
 10
921.5938251137
 20
-285.504793681
 10
925.402108978
 20
-287.7040414786
 10
929.4656341569
 20
-290.0506626657
  0
LWPOLYLINE
  5
DC
330
1F
100
AcDbEntity
  8
0
  6
Continuous
 62
     7
370
    25
100
AcDbPolyline
 90
      136
 70
   128
 43
0.0
 10
955.1336128091
 20
-304.8684713357
 10
951.4508527963
 20
-302.7417567485
 10
948.026779603
 20
-300.7643317642
 10
944.8687900011
 20
-298.9405774951
 10
941.9837328534
 20
-297.2743640744
 10
939.3778458935
 20
-295.7692939955
 10
937.0567767992
 20
-294.4287142778
 10
935.0255621188
 20
-293.2554001182
 10
933.2885851245
 20
-292.2519929097
 10
931.8496179594
 20
-291.4206352153
 10
930.7117794901
 20
-290.7631411154
 10
929.8775247707
 20
-290.2808927783
 10
929.3486555789
 20
-289.9749803862
 10
929.1263414897
 20
-289.8460561182
 10
929.2110461185
 20
-289.8943767377
 10
929.6025798044
 20
-290.1198583443
 10
930.3001259524
 20
-290.5219820681
 10
931.3021303972
 20
-291.099924872
 10
932.6064594548
 20
-291.8523952865
 10
934.2102629445
 20
-292.7777976667
 10
936.1100795563
 20
-293.8740983493
 10
938.3017947042
 20
-295.1389473222
 10
940.7806615994
 20
-296.5695443812
 10
943.5413065186
 20
-298.1628611809
 10
946.5777498778
 20
-299.9154587213
 10
949.8834273053
 20
-301.8234812656
 10
953.4511712026
 20
-303.882828192
 10
957.2732502573
 20
-306.0890186381
 10
961.3413957845
 20
-308.4373283775
 10
965.6467885561
 20
-310.9225753646
 10
970.1801114844
 20
-313.5394969262
 10
974.9315417197
 20
-316.2823132476
 10
979.8907908209
 20
-319.1451520935
 10
985.0471159516
 20
-322.1217936664
 10
990.3893491848
 20
-325.2058213676
 10
995.9059248324
 20
-328.3904915657
 10
1001.5848926166
 20
-331.6689480437
 10
1007.4139571822
 20
-335.0340866348
 10
1013.3804863283
 20
-338.4786208098
 10
1019.471562046
 20
-341.9950381393
 10
1025.6739897375
 20
-345.5758185435
 10
1031.9743429972
 20
-349.213192464
 10
1038.3589662464
 20
-352.8992153854
 10
1044.8140458555
 20
-356.6259001578
 10
1051.3255917048
 20
-360.3852489314
 10
1057.8795004052
 20
-364.169070643
 10
1064.4615790055
 20
-367.9692076369
 10
1071.0575766025
 20
-371.7774200697
 10
1077.6532054146
 20
-375.5853859101
 10
1084.2341776602
 20
-379.3849534111
 10
1090.7862477043
 20
-383.1678855966
 10
1097.2952120592
 20
-386.9259575927
 10
1103.746988409
 20
-390.6509900981
 10
1110.1275945367
 20
-394.3349710471
 10
1116.4232168127
 20
-397.9699248144
 10
1122.6202154632
 20
-401.5480004312
 10
1128.7051772537
 20
-405.0613559893
 10
1134.6649102205
 20
-408.5024719565
 10
1140.4865174281
 20
-411.8638409027
 10
1146.1573864319
 20
-415.1382169387
 10
1151.6652314258
 20
-418.3185062038
 10
1156.9981353881
 20
-421.3977790387
 10
1162.1445500825
 20
-424.369452491
 10
1167.0933065941
 20
-427.2269922227
 10
1171.8337101601
 20
-429.9642714454
 10
1176.3554874862
 20
-432.5753458205
 10
1180.6488288933
 20
-435.0545386411
 10
1184.7044726115
 20
-437.3965381629
 10
1188.5135994128
 20
-439.5961907688
 10
1192.0679590516
 20
-441.6488173167
 10
1195.3598913381
 20
-443.5499089571
 10
1198.3822313081
 20
-445.2953765716
 10
1201.1284567368
 20
-446.8814412599
 10
1203.5926038451
 20
-448.304683018
 10
1205.76933052
 20
-449.5619433983
 10
1207.6539268512
 20
-450.6505749411
 10
1209.2423362044
 20
-451.5682100071
 10
1210.5310920015
 20
-452.3128459359
 10
1211.5174125503
 20
-452.882875479
 10
1212.1991483617
 20
-453.2770807093
 10
1212.5748348326
 20
-453.4945661153
 10
1212.643671173
 20
-453.5348680977
 10
1212.4054782586
 20
-453.3979306426
 10
1211.8607881935
 20
-453.0840596971
 10
1211.0107916262
 20
-452.5938684211
 10
1209.8573008711
 20
-451.9284992378
 10
1208.4028500074
 20
-451.0893409519
 10
1206.6505579021
 20
-450.0782173416
 10
1204.6042493816
 20
-448.8973111206
 10
1202.2683287915
 20
-447.5492126038
 10
1199.6478537537
 20
-446.0368406281
 10
1196.7485298978
 20
-444.36341518
 10
1193.5766160307
 20
-442.5326216488
 10
1190.1389662839
 20
-440.5483918253
 10
1186.4430538202
 20
-438.4150392657
 10
1182.4968654676
 20
-436.1371984526
 10
1178.3089675729
 20
-433.7197654886
 10
1173.8884190744
 20
-431.1679695763
 10
1169.244789941
 20
-428.4873836704
 10
1164.3881374642
 20
-425.6837891181
 10
1159.3289812342
 20
-422.7632585519
 10
1154.0782731754
 20
-419.7321142564
 10
1148.6473998515
 20
-416.5969295038
 10
1143.0481113429
 20
-413.3644874867
 10
1137.2925396859
 20
-410.0417919717
 10
1131.393129396
 20
-406.6360515175
 10
1125.3627029933
 20
-403.1546199793
 10
1119.2142759515
 20
-399.6050356612
 10
1112.9611956507
 20
-395.9950042216
 10
1106.6169964976
 20
-392.3323150153
 10
1100.1954051938
 20
-388.6249414783
 10
1093.7103433705
 20
-384.8808966435
 10
1087.1758380254
 20
-381.108303104
 10
1080.6060768416
 20
-377.3152789462
 10
1074.0152475019
 20
-373.5100883166
 10
1067.4176377879
 20
-369.7009802146
 10
1060.8275723598
 20
-365.8961519877
 10
1054.2592599739
 20
-362.1039044566
 10
1047.7269831435
 20
-358.3323864221
 10
1041.2448452577
 20
-354.5898379884
 10
1034.8269180956
 20
-350.8842864047
 10
1028.4870837755
 20
-347.2238441413
 10
1022.2390769016
 20
-343.6163682261
 10
1016.0964476856
 20
-340.0696822835
 10
1010.0724829216
 20
-336.5915065754
 10
1004.1801954491
 20
-333.1893545829
 10
998.4324084467
 20
-329.8705573412
 10
992.8415341614
 20
-326.6423546845
 10
987.4197003487
 20
-323.511724914
 10
982.1786132958
 20
-320.4854517115
 10
977.1296631886
 20
-317.57003897
 10
972.2837765975
 20
-314.7718932985
 10
967.6514270143
 20
-312.0970015908
 10
963.2426664626
 20
-309.5511439522
 10
959.06705174
 20
-307.1399119475
 10
955.1336128091
 20
-304.8684713357
  0
LWPOLYLINE
  5
DD
330
1F
100
AcDbEntity
  8
0
  6
Continuous
 62
     1
370
    25
100
AcDbPolyline
 90
       20
 70
   128
 43
0.0
 10
1048.9666800088
 20
-640.6111621344
 10
1054.7647429331
 20
-644.1015362086
 10
1060.3045299698
 20
-647.7290146662
 10
1065.5763223189
 20
-651.487232707
 10
1070.5708832352
 20
-655.3695928667
 10
1075.2794369546
 20
-659.3692893482
 10
1079.6937266461
 20
-663.4793049801
 10
1083.8060130945
 20
-667.6924226217
 10
1087.609076018
 20
-672.0012624198
 10
1091.0962483118
 20
-676.3982529154
 10
1094.2614134147
 20
-680.8756903509
 10
1097.0990079427
 20
-685.425715859
 10
1099.6040585675
 20
-690.0403489186
 10
1101.7721820169
 20
-694.711487354
 10
1103.5995587329
 20
-699.4309407901
 10
1105.0829855548
 20
-704.1904367353
 10
1106.2198809884
 20
-708.9816114574
 10
1107.0082219847
 20
-713.7960708103
 10
1107.4466335029
 20
-718.625368945
 10
1107.5453308854
 20
-722.2519745332
  0
LWPOLYLINE
  5
DE
330
1F
100
AcDbEntity
  8
0
  6
Continuous
 62
     1
370
    25
100
AcDbPolyline
 90
       58
 70
   128
 43
0.0
 10
707.545312443
 20
-722.2519745332
 10
707.556291697
 20
-721.0429255499
 10
707.8194144723
 20
-716.2093938459
 10
708.4329250726
 20
-711.3864582304
 10
709.3957487534
 20
-706.582585842
 10
710.7061996408
 20
-701.8062073228
 10
712.3619649263
 20
-697.0656894466
 10
714.3601575509
 20
-692.3693655322
 10
716.6972582528
 20
-687.7254594094
 10
719.3691682508
 20
-683.1421279983
 10
722.3712039765
 20
-678.6274035233
 10
725.6980970739
 20
-674.1892178441
 10
729.344020741
 20
-669.8353507525
 10
733.3025607545
 20
-665.5734345343
 10
737.5667813235
 20
-661.410952449
 10
742.1292092849
 20
-657.3552113573
 10
746.9818314692
 20
-653.4133189111
 10
752.1161289447
 20
-649.5921881153
 10
757.5231079689
 20
-645.8985316254
 10
763.1932779278
 20
-642.3388258216
 10
769.1166888723
 20
-638.9193134697
 10
775.2829483115
 20
-635.645994027
 10
781.6812422862
 20
-632.5246114768
 10
788.3003521613
 20
-629.5606446341
 10
795.1286500164
 20
-626.7592854756
 10
802.1541608782
 20
-624.1254518762
 10
809.3645725987
 20
-621.6637697401
 10
816.7472279523
 20
-619.3785532326
 10
824.2891641489
 20
-617.2738063003
 10
831.9771602491
 20
-615.3532317958
 10
839.7977397979
 20
-613.6201934601
 10
847.7371629229
 20
-612.0777326504
 10
855.7815158956
 20
-610.7285531333
 10
863.916668985
 20
-609.5750210848
 10
872.1283765564
 20
-608.6191681313
 10
880.4022033141
 20
-607.8626609368
 10
888.7236560107
 20
-607.306834657
 10
897.0781307631
 20
-606.9526625261
 10
905.450960468
 20
-606.8007649812
 10
913.8274674854
 20
-606.8514035789
 10
922.1929636387
 20
-607.1044931612
 10
930.5327554827
 20
-607.5595927313
 10
938.8322127927
 20
-608.215908495
 10
947.0767949059
 20
-609.0722725711
 10
955.2520138432
 20
-610.1271946946
 10
963.3435396761
 20
-611.3788257202
 10
971.3371847217
 20
-612.8249606641
 10
979.2189140794
 20
-614.4630691169
 10
986.9749035829
 20
-616.2902800376
 10
994.5915398002
 20
-618.3033817527
 10
1002.0554779853
 20
-620.4988432468
 10
1009.3536025658
 20
-622.872815682
 10
1016.4731298758
 20
-625.4211308785
 10
1023.4015581063
 20
-628.1393210824
 10
1030.1267318427
 20
-631.0226197266
 10
1036.6368618214
 20
-634.0659606704
 10
1042.9205196608
 20
-637.2640116543
 10
1048.9666800088
 20
-640.6111621344
  0
LWPOLYLINE
  5
DF
330
1F
100
AcDbEntity
  8
0
  6
Continuous
 62
     1
370
    25
100
AcDbPolyline
 90
       24
 70
   128
 43
0.0
 10
1048.9666800088
 20
-640.6111621344
 10
1054.8010735166
 20
-643.9792815195
 10
1060.4497996199
 20
-647.240160165
 10
1065.9029393214
 20
-650.38812071
 10
1071.1509397745
 20
-653.4176120579
 10
1076.1845932099
 20
-656.3233188781
 10
1080.9950527407
 20
-659.100170729
 10
1085.5738942654
 20
-661.7432682963
 10
1089.9130861754
 20
-664.2479754009
 10
1094.0050025251
 20
-666.609914438
 10
1097.842473082
 20
-668.8249466011
 10
1101.4187648871
 20
-670.8891612367
 10
1104.7276085966
 20
-672.7989518843
 10
1107.7631879453
 20
-674.5509493549
 10
1110.5201871622
 20
-676.1421099459
 10
1112.9937593595
 20
-677.5696363444
 10
1115.1795844853
 20
-678.8310110935
 10
1117.0738166397
 20
-679.9240270023
 10
1118.6731209533
 20
-680.8467476004
 10
1119.9747104658
 20
-681.5976014393
 10
1120.9762881738
 20
-682.1752147787
 10
1121.6761049832
 20
-682.5786153966
 10
1122.0729386353
 20
-682.807086577
 10
1122.1717624584
 20
-682.8636255734
  0
LWPOLYLINE
  5
E0
330
1F
100
AcDbEntity
  8
0
  6
Continuous
 62
     1
370
    25
100
AcDbPolyline
 90
       54
 70
   128
 43
0.0
 10
775.7615949236
 20
-482.8636382406
 10
775.7672873823
 20
-482.8670343531
 10
775.977993966
 20
-482.9893349864
 10
776.4921927618
 20
-483.2868396155
 10
777.3089634538
 20
-483.7590442917
 10
778.4268811163
 20
-484.4051158985
 10
779.8439796647
 20
-485.2239010938
 10
781.5577823131
 20
-486.2139817279
 10
783.5652808302
 20
-487.3736259871
 10
785.8629406429
 20
-488.7007976172
 10
788.4467400199
 20
-490.1931697995
 10
791.3121554191
 20
-491.8480971135
 10
794.4541450237
 20
-493.6626980491
 10
797.8671968161
 20
-495.6338029161
 10
801.5453312123
 20
-497.7579158188
 10
805.4820971101
 20
-500.0313629539
 10
809.6705824265
 20
-502.4500918454
 10
814.1034351705
 20
-505.0099268623
 10
818.7728897854
 20
-507.7063106632
 10
823.6707487091
 20
-510.5345825247
 10
828.7884192528
 20
-513.4897137068
 10
834.1169136011
 20
-516.566550794
 10
839.6469067638
 20
-519.7597214048
 10
845.368678624
 20
-523.0635703115
 10
851.2721929632
 20
-526.4723571641
 10
857.347097462
 20
-529.9800496382
 10
863.5827395042
 20
-533.5805211629
 10
869.9681714461
 20
-537.2674627058
 10
876.4921980309
 20
-541.0343918967
 10
883.1433500476
 20
-544.8746925736
 10
889.9100055026
 20
-548.781654328
 10
896.7802473745
 20
-552.7483842894
 10
903.7420427381
 20
-556.7679592177
 10
910.7831900808
 20
-560.8333220844
 10
917.8913193024
 20
-564.9373429041
 10
925.0539549359
 20
-569.0727822342
 10
932.2585582938
 20
-573.2324493533
 10
939.4924589797
 20
-577.4089923674
 10
946.7429865974
 20
-581.5951081041
 10
953.9974233353
 20
-585.783441727
 10
961.2430197717
 20
-589.9666566955
 10
968.4670897052
 20
-594.1374286859
 10
975.6569416661
 20
-598.2884060417
 10
982.7999737467
 20
-602.4123253672
 10
989.8836577962
 20
-606.5019415602
 10
996.8955499576
 20
-610.5500947339
 10
1003.8233591562
 20
-614.5496889213
 10
1010.6549286605
 20
-618.4936814309
 10
1017.3782861311
 20
-622.3751604084
 10
1023.9816146456
 20
-626.1873402736
 10
1030.4533488453
 20
-629.9235077297
 10
1036.7821314715
 20
-633.5771061692
 10
1042.9568502442
 20
-637.1417569652
 10
1048.9666800088
 20
-640.6111621344
  0
ENDSEC
  0
SECTION
  2
OBJECTS
  0
DICTIONARY
  5
C
330
0
100
AcDbDictionary
281
     1
  3
ACAD_GROUP
350
D
  3
ACAD_LAYOUT
350
1A
  3
ACAD_MLINESTYLE
350
17
  3
ACAD_PLOTSETTINGS
350
19
  3
ACAD_PLOTSTYLENAME
350
E
  3
ACAD_SCALELIST
350
47
  0
DICTIONARY
  5
D
102
{ACAD_REACTORS
330
C
102
}
330
C
100
AcDbDictionary
281
     1
  0
DICTIONARY
  5
1A
102
{ACAD_REACTORS
330
C
102
}
330
C
100
AcDbDictionary
281
     1
  3
Layout1
350
1E
  3
Layout2
350
26
  3
Model
350
22
  0
DICTIONARY
  5
17
102
{ACAD_REACTORS
330
C
102
}
330
C
100
AcDbDictionary
281
     1
  3
Standard
350
18
  0
DICTIONARY
  5
19
102
{ACAD_REACTORS
330
C
102
}
330
C
100
AcDbDictionary
281
     1
  0
ACDBDICTIONARYWDFLT
  5
E
102
{ACAD_REACTORS
330
C
102
}
330
C
100
AcDbDictionary
281
     1
  3
Normal
350
F
100
AcDbDictionaryWithDefault
340
F
  0
DICTIONARY
  5
47
102
{ACAD_REACTORS
330
C
102
}
330
C
100
AcDbDictionary
281
     1
  3
A0
350
48
  3
A1
350
49
  3
A2
350
4A
  3
A3
350
4B
  3
A4
350
4C
  3
A5
350
4D
  3
A6
350
4E
  3
A7
350
4F
  3
A8
350
50
  3
A9
350
51
  3
B0
350
52
  3
B1
350
53
  3
B2
350
54
  3
B3
350
55
  3
B4
350
56
  3
B5
350
57
  3
B6
350
58
  3
B7
350
59
  3
B8
350
5A
  3
B9
350
5B
  3
C0
350
5C
  3
C1
350
5D
  3
C2
350
5E
  3
C3
350
5F
  3
C4
350
60
  3
C5
350
61
  3
C6
350
62
  3
C7
350
63
  3
C8
350
64
  3
C9
350
65
  3
D0
350
66
  3
D1
350
67
  3
D2
350
68
  0
LAYOUT
  5
1E
102
{ACAD_REACTORS
330
1A
102
}
330
1A
100
AcDbPlotSettings
  1

  2
none_device
  4

  6

 40
0.0
 41
0.0
 42
0.0
 43
0.0
 44
0.0
 45
0.0
 46
0.0
 47
0.0
 48
0.0
 49
0.0
140
0.0
141
0.0
142
1.0
143
1.0
 70
   688
 72
     1
 73
     0
 74
     5
  7

 75
    16
147
1.0
148
0.0
149
0.0
100
AcDbLayout
  1
Layout1
 70
     1
 71
     1
 10
0.0
 20
0.0
 11
420.0
 21
297.0
 12
0.0
 22
0.0
 32
0.0
 14
1.0000000000E+20
 24
1.0000000000E+20
 34
1.0000000000E+20
 15
-1.0000000000E+20
 25
-1.0000000000E+20
 35
-1.0000000000E+20
146
0.0
 13
0.0
 23
0.0
 33
0.0
 16
1.0
 26
0.0
 36
0.0
 17
0.0
 27
1.0
 37
0.0
 76
     0
330
1B
  0
LAYOUT
  5
26
102
{ACAD_REACTORS
330
1A
102
}
330
1A
100
AcDbPlotSettings
  1

  2
none_device
  4

  6

 40
0.0
 41
0.0
 42
0.0
 43
0.0
 44
0.0
 45
0.0
 46
0.0
 47
0.0
 48
0.0
 49
0.0
140
0.0
141
0.0
142
1.0
143
1.0
 70
   688
 72
     1
 73
     0
 74
     5
  7

 75
    16
147
1.0
148
0.0
149
0.0
100
AcDbLayout
  1
Layout2
 70
     1
 71
     2
 10
0.0
 20
0.0
 11
0.0
 21
0.0
 12
0.0
 22
0.0
 32
0.0
 14
0.0
 24
0.0
 34
0.0
 15
0.0
 25
0.0
 35
0.0
146
0.0
 13
0.0
 23
0.0
 33
0.0
 16
1.0
 26
0.0
 36
0.0
 17
0.0
 27
1.0
 37
0.0
 76
     0
330
23
  0
LAYOUT
  5
22
102
{ACAD_REACTORS
330
1A
102
}
330
1A
100
AcDbPlotSettings
  1

  2
none_device
  4
Letter_(8.50_x_11.00_Inches)
  6

 40
6.35
 41
6.35
 42
6.35000508
 43
6.35000508
 44
215.9
 45
279.4
 46
0.0
 47
0.0
 48
0.0
 49
0.0
140
0.0
141
0.0
142
1.0
143
1.0
 70
  1712
 72
     1
 73
     0
 74
     0
  7

 75
     0
147
1.0
148
0.0
149
0.0
100
AcDbLayout
  1
Model
 70
     1
 71
     0
 10
0.0
 20
0.0
 11
279.4
 21
215.9
 12
0.0
 22
0.0
 32
0.0
 14
0.0
 24
0.0
 34
0.0
 15
279.4
 25
215.9
 35
0.0
146
0.0
 13
0.0
 23
0.0
 33
0.0
 16
1.0
 26
0.0
 36
0.0
 17
0.0
 27
1.0
 37
0.0
 76
     0
330
1F
331
29
  0
MLINESTYLE
  5
18
102
{ACAD_REACTORS
330
17
102
}
330
17
100
AcDbMlineStyle
  2
Standard
 70
     0
  3

 62
   256
 51
90.0
 52
90.0
 71
     2
 49
0.5
 62
   256
  6
BYLAYER
 49
-0.5
 62
   256
  6
BYLAYER
  0
ACDBPLACEHOLDER
  5
F
102
{ACAD_REACTORS
330
E
102
}
330
E
  0
SCALE
  5
48
102
{ACAD_REACTORS
330
47
102
}
330
47
100
AcDbScale
 70
     0
300
1:1
140
1.0
141
1.0
290
     1
  0
SCALE
  5
49
102
{ACAD_REACTORS
330
47
102
}
330
47
100
AcDbScale
 70
     0
300
1:2
140
1.0
141
2.0
290
     0
  0
SCALE
  5
4A
102
{ACAD_REACTORS
330
47
102
}
330
47
100
AcDbScale
 70
     0
300
1:4
140
1.0
141
4.0
290
     0
  0
SCALE
  5
4B
102
{ACAD_REACTORS
330
47
102
}
330
47
100
AcDbScale
 70
     0
300
1:5
140
1.0
141
5.0
290
     0
  0
SCALE
  5
4C
102
{ACAD_REACTORS
330
47
102
}
330
47
100
AcDbScale
 70
     0
300
1:8
140
1.0
141
8.0
290
     0
  0
SCALE
  5
4D
102
{ACAD_REACTORS
330
47
102
}
330
47
100
AcDbScale
 70
     0
300
1:10
140
1.0
141
10.0
290
     0
  0
SCALE
  5
4E
102
{ACAD_REACTORS
330
47
102
}
330
47
100
AcDbScale
 70
     0
300
1:16
140
1.0
141
16.0
290
     0
  0
SCALE
  5
4F
102
{ACAD_REACTORS
330
47
102
}
330
47
100
AcDbScale
 70
     0
300
1:20
140
1.0
141
20.0
290
     0
  0
SCALE
  5
50
102
{ACAD_REACTORS
330
47
102
}
330
47
100
AcDbScale
 70
     0
300
1:30
140
1.0
141
30.0
290
     0
  0
SCALE
  5
51
102
{ACAD_REACTORS
330
47
102
}
330
47
100
AcDbScale
 70
     0
300
1:40
140
1.0
141
40.0
290
     0
  0
SCALE
  5
52
102
{ACAD_REACTORS
330
47
102
}
330
47
100
AcDbScale
 70
     0
300
1:50
140
1.0
141
50.0
290
     0
  0
SCALE
  5
53
102
{ACAD_REACTORS
330
47
102
}
330
47
100
AcDbScale
 70
     0
300
1:100
140
1.0
141
100.0
290
     0
  0
SCALE
  5
54
102
{ACAD_REACTORS
330
47
102
}
330
47
100
AcDbScale
 70
     0
300
2:1
140
2.0
141
1.0
290
     0
  0
SCALE
  5
55
102
{ACAD_REACTORS
330
47
102
}
330
47
100
AcDbScale
 70
     0
300
4:1
140
4.0
141
1.0
290
     0
  0
SCALE
  5
56
102
{ACAD_REACTORS
330
47
102
}
330
47
100
AcDbScale
 70
     0
300
8:1
140
8.0
141
1.0
290
     0
  0
SCALE
  5
57
102
{ACAD_REACTORS
330
47
102
}
330
47
100
AcDbScale
 70
     0
300
10:1
140
10.0
141
1.0
290
     0
  0
SCALE
  5
58
102
{ACAD_REACTORS
330
47
102
}
330
47
100
AcDbScale
 70
     0
300
100:1
140
100.0
141
1.0
290
     0
  0
SCALE
  5
59
102
{ACAD_REACTORS
330
47
102
}
330
47
100
AcDbScale
 70
     0
300
1/128" = 1'-0"
140
0.0078125
141
12.0
290
     0
  0
SCALE
  5
5A
102
{ACAD_REACTORS
330
47
102
}
330
47
100
AcDbScale
 70
     0
300
1/64" = 1'-0"
140
0.015625
141
12.0
290
     0
  0
SCALE
  5
5B
102
{ACAD_REACTORS
330
47
102
}
330
47
100
AcDbScale
 70
     0
300
1/32" = 1'-0"
140
0.03125
141
12.0
290
     0
  0
SCALE
  5
5C
102
{ACAD_REACTORS
330
47
102
}
330
47
100
AcDbScale
 70
     0
300
1/16" = 1'-0"
140
0.0625
141
12.0
290
     0
  0
SCALE
  5
5D
102
{ACAD_REACTORS
330
47
102
}
330
47
100
AcDbScale
 70
     0
300
3/32" = 1'-0"
140
0.09375
141
12.0
290
     0
  0
SCALE
  5
5E
102
{ACAD_REACTORS
330
47
102
}
330
47
100
AcDbScale
 70
     0
300
1/8" = 1'-0"
140
0.125
141
12.0
290
     0
  0
SCALE
  5
5F
102
{ACAD_REACTORS
330
47
102
}
330
47
100
AcDbScale
 70
     0
300
3/16" = 1'-0"
140
0.1875
141
12.0
290
     0
  0
SCALE
  5
60
102
{ACAD_REACTORS
330
47
102
}
330
47
100
AcDbScale
 70
     0
300
1/4" = 1'-0"
140
0.25
141
12.0
290
     0
  0
SCALE
  5
61
102
{ACAD_REACTORS
330
47
102
}
330
47
100
AcDbScale
 70
     0
300
3/8" = 1'-0"
140
0.375
141
12.0
290
     0
  0
SCALE
  5
62
102
{ACAD_REACTORS
330
47
102
}
330
47
100
AcDbScale
 70
     0
300
1/2" = 1'-0"
140
0.5
141
12.0
290
     0
  0
SCALE
  5
63
102
{ACAD_REACTORS
330
47
102
}
330
47
100
AcDbScale
 70
     0
300
3/4" = 1'-0"
140
0.75
141
12.0
290
     0
  0
SCALE
  5
64
102
{ACAD_REACTORS
330
47
102
}
330
47
100
AcDbScale
 70
     0
300
1" = 1'-0"
140
1.0
141
12.0
290
     0
  0
SCALE
  5
65
102
{ACAD_REACTORS
330
47
102
}
330
47
100
AcDbScale
 70
     0
300
1-1/2" = 1'-0"
140
1.5
141
12.0
290
     0
  0
SCALE
  5
66
102
{ACAD_REACTORS
330
47
102
}
330
47
100
AcDbScale
 70
     0
300
3" = 1'-0"
140
3.0
141
12.0
290
     0
  0
SCALE
  5
67
102
{ACAD_REACTORS
330
47
102
}
330
47
100
AcDbScale
 70
     0
300
6" = 1'-0"
140
6.0
141
12.0
290
     0
  0
SCALE
  5
68
102
{ACAD_REACTORS
330
47
102
}
330
47
100
AcDbScale
 70
     0
300
1'-0" = 1'-0"
140
12.0
141
12.0
290
     0
  0
ENDSEC
  0
EOF
